Oops, an error
Loading. Please wait.

The Outlaw Torn Bass Tab

version 3
version 3

Whole song

2,049 views 15 this week
no commentswrite comment
1 2 3 4 5
excellent!
x 3
add to favorites
launch autoscroll
font size
0
reset
guitar tuner
Autoscroll
slow
fast
+/-
esc
set tempo
stop
Help us to improve Ultimate-Guitar.com Take our survey!
×
Author
Difficulty
Tuning
intermediate
D# G# C# F# A# D#
-------------------------------------------------------------------------------
                             The Outlaw Torn - Metallica
-------------------------------------------------------------------------------
Tabbed by: MetallicaDMRTL
Tuning: half step down EbAbDbGb

hey guys told u i was gonna do some load so here u go, load up!!!

Gb||-----------------------------|----------------------------|
Db||-----------------------------|----------------------------|
Ab||-----------------------------|----------------------------| x3
Eb||--0-0--0-0--0-0--0-0--0--0-0-|---0--0-0--0-0--0-0--0--0-0-|
                                                       
----------------------------|-----------------------------|
----------------------------|-----------------------------|
----------------------------|-----------------------------|
---0--0-0--0-0--0-0--0--0-0-|---0--0-0--0-0--0-0--0-0-3-0-|
                                                             
----------------------------------|----------------------------|
----------------------------------|----------------------------|
--5-7-----7---7---5-7-----7---7---|--5--5-5--5-5--5--5-5-5--5--| x4
------0-0-0-0-0-0-----0-0-0-0-0-0-|----------------------------|
                                                    
--------------------------|----------------------------|
--------------------------|----------------------------|
--------7-----------------|--------7-------------------| x7
--0--7-----7/-0--3--4r--3-|--0--7-----7/-3-2-0--3--0-3-|
                                                                    
------------------------------|------------------------------|
------------------------------|------------------------------|
---------5-------------5------|---------5-------------5------|
--7-5-7-----7-5-7-5-7-----7-5-|--7-5-7-----7-5-7-5-7-----7-5-|
                                                           
------------------------------|------------------------------|
------------------------------|------------------------------|
---------3-------------3------|---------3-------------3------|
--5-3-5-----5-3-5-3-5-----5-3-|--5-3-5-----5-3-5-3-5-----5-3-|
                                                              
----------------------------------|----------------------------|
----------------------------------|----------------------------|
--5-7-----7---7---5-7-----7---7---|--5--5-5--5-5--5--5-5-5--5--| x4
------0-0-0-0-0-0-----0-0-0-0-0-0-|----------------------------|
                                                                     
--------------------------|----------------------------|
--------------------------|----------------------------|
--------7-----------------|--------7-------------------| x7
--0--7-----7/-0--3--4r--3-|--0--7-----7/-3-2-0--3--0-3-|
                                                                      
------------------------------|------------------------------|
------------------------------|------------------------------|
---------5-------------5------|---------5-------------5------|
--7-5-7-----7-5-7-5-7-----7-5-|--7-5-7-----7-5-7-5-7-----7-5-|
                                                             
------------------------------|------------------------------|
------------------------------|------------------------------|
---------3-------------3------|---------3-------------3------|
--5-3-5-----5-3-5-3-5-----5-3-|--5-3-5-----5-3-5-3-5-----5-3-|
                                                               
----------------------------------|----------------------------|
----------------------------------|----------------------------|
--5-7-----7---7---5-7-----7---7---|--5--5-5--5-5--5--5-5-5--5--| x4
------0-0-0-0-0-0-----0-0-0-0-0-0-|----------------------------|
                                                                            
----------------------------------|----------------------------------|
----------------------------------|----------------------------------|
--5-7-7-----------5---------------|----------------------------------| x4
--------0-0-0-0-0---5-5-3-5-5-5-0-|--3-5-5-5-5-5-5-3-5-3-3-2-3-3-3-3-|
                                                               
----------------------------|----------------------------|
----------------------------|----------------------------|
----------------------------|----------------------------| x8
--0-0--0-0--0-0--0-0--0-0---|--0-0--0-0--0-0--0-0--0-0---|
                                                          
----------------------------|----------------------------|
----------------------------|----------------------------|
--2-2--2-2--2-2--2-2--2-2---|--2-2--2-2--2-2--2-2--2-2---| x2
----------------------------|----------------------------|
                                                                      
----------------------------------|----------------------------|
----------------------------------|----------------------------|
--5-7-----7---7---5-7-----7---7---|--5--5-5--5-5--5--5-5-5--5--| x4
------0-0-0-0-0-0-----0-0-0-0-0-0-|----------------------------|
                                                                         
----------------------------------|----------------------------------|
----------------------------------|----------------------------------|
--5-7-7-----------5---------------|----------------------------------| x4
--------0-0-0-0-0---5-5-3-5-5-5-0-|--3-5-5-5-5-5-5-3-5-3-3-2-3-3-3-3-|
                                                              
----------------------------|----------------------------|
----------------------------|----------------------------|
----------------------------|----------------------------| x6
--0-0--0-0--0-0--0-0--0-0---|--0-0--0-0--0-0--0-0--0-0---|
                                                                
------------------------------|------------------------------|
------------------------------|------------------------------|
------------------------------|------------------------------| x6
--0-0--0-0--0-0-1-1--1-1--1-1-|--2-2--2-2--2-2-3-3--3-3--3-3-|
                                                                   
------------------------------|--------------------------------|
------------------------------|--------------------------------|
------------------------------|--------------------------------|
--0-0-0--0-0--0-1-1-1--1-1--1-|--2--2--2-2-2-2-3-3-3-3-3-3-3-3-|
                                                                 
--------------------------------|--------------------------------|
--------------------------------|--------------------------------|
--------------------------------|--------------------------------| x9
--0--0--0-0-0-0-1-1-1-1-1-1-1-1-|--2--2--2-2-2-2-3-3-3-3-3-3-3-3-|
                                               
-------------------|------------------||
-------------------|------------------||
-------------------|------------------||
--0----------------|------------------||

Well there u guys hope u enjoi the last track off load, CAUSE IM OUTLAW!!!

MetallicaDMRTL

                           \m/Metallica\m/
Suggest correction
Give kudos to tab author, rate the tab!
1 2 3 4 5
comments
print report bad tab
guest
You may want to rate the tab now too:
select rating
Wanna post a correction for this tab? Suggest correction