Oops, an error
Loading. Please wait.

The Outlaw Torn Tab

version 3
version 3
40,050 views 57 this week
15 commentsread comments
1 2 3 4 5
excellent!
x 19
add to favorites
launch autoscroll
font size
0
reset
how to read this tab
guitar tuner
Autoscroll
slow
fast
+/-
esc
set tempo
stop
Help us to improve Ultimate-Guitar.com Take our survey!
×
Metallica

Load,(1996),Elektra

Kirk Hammet,James Hetfeild,Lars Ulrich,Jason Newsted

The Outlaw Torn

 [Intro] (Wah)
e|-0-----------------------0---------------------------|
B|-0-----------------------0---------------------------|
G|-2-----------------------2---------------------------|
D|-3-2--2-2--2-2--2-2-2-2--3-2--2-2--2-2--2-2-2-2------|
A|-3-2--2-2--2-2--2-2-2-2--3-2--2-2--2-2--2-2-2-2------|
E|-1-0--0-0--0-0--0-0-0-0--1-0--0-0--0-0--0-0-0-0------|

e|--------------------------------|-----------------------------------------|
B|--------------------------------|-----------------------------------------|
G|--------------------------------|-----------------------------------------|
D|--------------------------------|-5-4---------5-4-------4-5-4-------------|
A|-5-7---7---5-7---5-7---5-7---7--|-5---5-5-----5---5---5-5-----5-----------|
E|-0-0-0-0-0-0-0-0-0-0-0-0-0-0-0--|-----------------------------------------|

 [Pre-Verse]
e|------------------------|
B|------------------------|
G|-7-/-9----------\-------|
D|-7-/-9----------\-------|
A|-5-/-7----------\-------|
E|-0----------------------|

 [Bass Verse]
G|-------------------------------|------------------------------------------|
D|-------------------------------|------------------------------------------|
A|--------7----------------------|--------7---------------------------------|
E|-0--/7-----7\--0---3---4-5-4-3-|-0--/7-----7\--3-2-0---3-2-0-2-0----------|

e|------------------------|
B|------------------------|
G|-7-/-9----------\-------|
D|-7-/-9----------\-------|
A|-5-/-7----------\-------|
E|-0--------------\-------|

 [Chorus]
e|--------------------------------|-----------------------------------------|
B|--------------------------------|-----------------------------------------|
G|--------------------------------|-----------------------------------------|
D|--------------------------------|-5-4---------5-4-------4-5-4-------------|
A|-5-7---7---5-7---5-7---5-7---7--|-5---5-5-----5---5---5-5-----5-----------|
E|-0-0-0-0-0-0-0-0-0-0-0-0-0-0-0--|-----------------------------------------|

[Bridge]
e|----------------------------------------------------|
B|----------------------------------------------------|
G|---7---9-------7---9--------7---------9-------------|
D|---7---9-------7---9--------7---------9-------------|
A|---5---7-------5---7--------5---------7-------------|
E|----------------------------------------------------|

 [Solo]               Tremolo Picking
e|------------------|--------------------------|--------------------|
B|-------12---------|-12-12-12-12-12-12----14b-|----------------14b-|
G|-12-12-12---------|-12-12-12-12-12-12-14-14b-|-14b-14b-14b-14-14b-|
D|-12-12-12---------|--------------------------|--------------------|
A|------------------|--------------------------|--------------------|
E|------------------|--------------------------|--------------------|

e|------------------------------|-15-----12\------------17\----------|
B|------------------------------|----12\-----20\1\17-17-----14\12\10-|
G|-12---------------------------|------------------------------------|
D|----14~~~-14~~~-14~~-14~-14~~-|------------------------------------|
A|------------------------------|------------------------------------|
E|------------------------------|------------------------------------|

               | Slide Guitar From here
e|-10\---------|-------------------------------------|
B|-----8/19\---|-------------------------------------|
G|-----------0-|-------------12h14-------------12h14-|
D|-----------0-|-------12h14-------------12h14-------|
A|-------------|-12h14-------------12h14-------------|
E|-------------|-------------------------------------|

e|-0h14h17-0h14h17-------14h17-------17b-17~-17b-17b-17~-17b-|
B|-----------------15h17-------15h17-------------------------|
G|-----------------------------------------------------------|
D|-----------------------------------------------------------|
A|-----------------------------------------------------------|
E|-----------------------------------------------------------|

e|-17b/19-19b/22-22b\-|
B|--------------------|
G|--------------------|
D|--------------------|
A|--------------------|
E|--------------------|

 [Outro]
e|--------------------------------------------------------------|
B|--------------------------------------------------------------|
G|--------------------------------------------------------------|
D|--------------------------------------------------------------|
A|--------------------------------------------------------------|
E|--0--/10-12---0-/10-12--0--/10--12--0--/10--12--12b---12--10--|
                                                
e|--------------------------------------------------------------|
B|--------------------------------------------------------------|
G|--------------------------------------------------------------|
D|--------------------------------------------------------------|
A|------------------------------------------------12b--12---10--|
E|--0--/10--12--0--/10-12-0--/10--12---0/10----12---------------|

e|--------------------------------------------------------------------|
B|--------------------------------------------------------------------|
G|--------------------------------------------------------------------|
D|--------------------------------------------------------------------|
A|--------------------------------------------12b(14)--12---10h12p10--|
E|-0-/10-12--0-/10-12--0-/10-12---0-/10--12---------------------------|

e|-----------------------------------------------------------|
B|-----------------------------------------------------------|
G|-----------------------------------------------------------|
D|-----------------------------------------------------------|
A|-----------------------------------------------------------|
E|-0-/10-12--0-/10-12--0-/10-12--0-/10-12-----12b--12---10~~~|

e|----------------------------------------------------------|
B|----------------------------------------------------------|
G|----------------------------------------------------------|
D|----------------------------------------------------------|
A|--------------------------------------------12b---12--10--|
E|-0-/10-12--0-/10-12--0-/10-12--0--/10---12----------------|

e|---------------------|
B|---------------------|
G|---------------------|
D|---------------------|
A|---------------------|
E|--12b-------12---10--|

e|-----------------------------------------------------------------|
B|-----------------------------------------------------------------|
G|-----------------------------------------------------------------|
D|-----------------------------------------------------------------|
A|-------------------------------------10--10b-------10---12---10~~|
E|-0--/10-12---0--/10--12---0-/10--12------------12----------------|

e|--------------------------------------------------------------------|
B|--------------------------------------------------------------------|
G|--------------------------------------------------------------------|
D|--------------------------------------------------------------------|
A|---------------10b---------------------------10-12b-----12-10h12p10-|
E|-/10--12-12-12-----12-----12----12-12-10--12------------------------|

e|----------------------------------------------------------|
B|----------------------------------------------------------|
G|----------------------------------------------------------|
D|----------------------------------------------------------|
A|---------------10b-----------------10--12b---12---10h12---|
E|-/10--12-12-12-----12--12-12-10-12------------------------|

e|------------------------------------------------------------|
B|----------------12b-----------------------------------------|
G|----------------12b---------------------12-14b-14--12h14p12-|
D|-/12--14--14-14------14---14-14--12--14---------------------|
A|------------------------------------------------------------|
E|------------------------------------------------------------|

e|------------------------------------------------------------|
B|--------------12b----------------------12-12b----12-14--12\-|
G|--------------12b----------------------12-12b----12-14--12\-|
D|-/12-14-14-14------14---14-14-h14---------14----------------|
A|------------------------------------------------------------|
E|------------------------------------------------------------|

e|------------------------------------------------------------|
B|------------------------------------------------------------|
G|------------------------------------------------------------|
D|------------------------------------------------------------|
A|------------------------------------------------------------|
E|-0--/10-12--0-/10--12--0-/10--12--0-/10-12--12b--12--10-----|

e|----------------------------------------------------------------|
B|----------------------------------------------------------------|
G|----------------------------------------------------------------|
D|----------------------------------------------------------------|
A|---------------------------------------------10h12p10-----10-12-|
E|-0-/10--12--0--/10-12---0-/10--12--0-/10--12----------12--------|

e|------------------------------------------------------------|
B|------------------------------------------------------------|
G|------------------------------------------------------------|
D|------------------------------------------------------------|
A|------------------------------------------------------------|
E|-0--/10-12--0-/10-12--0-/10-12--0-/10-12--12b-12--10--------|

e|-------------------------------------------------------------------|
B|-------------------------------------------------------------------|
G|-------------------------------------------------------------------|
D|-------------------------------------------------------------------|
A|-----------------------------10-12--10b--12-10b----12-10b-12-10b---|
E|-0-/10-12--0-/10-12--0/10-12-------------------------------------12|

e|-------------------------------------------------------|
B|-------------------------------------------------------|
G|-------------------------------------------------------|
D|-------------------------------------------------------|
A|-------------------------------------------------------|
E|-0-/10-12--0-/10-12--0-/10-12--0-/10-12--12b--12--10---|

e|-------------------------------------------------------------------|
B|-------------------------------------------------------------------|
G|-------------------------------------------------------------------|
D|-------------------------------------------------------------------|
A|-------------------------------------------12b---12b-12b-12b---10~~|
E|-0-/10-12---0-/10-12--0-/10-12--0-/10--12--------------------------|
                                                   
e|---------------------------------------------------------------|
B|---------------------------------------------------------------|
G|---------------------------------------------------------------|
D|---------------------------------------------------------------|
A|---------------------------------------------------------------|
E|-0-/10-12--0-/10-12-0-/10-12--0-/10-12---12b--12---10~~~~~~----|

e|---------------------------------------------------------------|
B|---------------------------------------------------------------|
G|---------------------------------------------------------------|
D|---------------------------------------------------------------|
A|-----------------------10-10-10b---------------------10--------|
E|-0-/10-12--0-/10-12--0------------12-12-12--10-10-10-----h12-\-|

e|---------------------------------------------------------------|
B|---------------------------------------------------------------|
G|-/12-12--------------------------------------------------------|
D|-/12-12-14p12--------------------------------------------------|
A|--------------14p12\10b~~~~~-------------10--12b--12--10h12p10-|
E|----------------------------12\--/10-12------------------------|

e|---------------------------------------------------------------|
B|---------------------------------------------------------------|
G|-/12-12--------------------------------------------------------|
D|-/12-12-14p12--------------------------------------------------|
A|--------------14p12\10b~~~-------------10--12b--12--10h12------|
E|-------------------------12--12\-/10---------------------------|

 Begins To fade
e|-------------------------------------------------------------------|
B|--------------12b-----------------------12-12-14---14--14-14--12---|
G|--------------12b-----------------------12-12-14---14--14-14--12---|
D|-/12-14-14-14-----14--14-14-12h14-14-14----------------------------|
A|-------------------------------------------------------------------|
E|-------------------------------------------------------------------|

e|-------------------------------12-----------------------------------|
B|--------------12b----------12-----12-x--x--12-12----12-12-12-12-12x-|
G|--------------12b----------12-----12-x--x--12-12----12-12-12-12-12x-|
D|-12-14--14-14-----14----14------------------------------------------|
A|--------------------------------------------------------------------|
E|-------------------------------------------------12-----------------|

e|---------------------------------------------------------------|
B|---------------------------------------------------------------|
G|---------------------------------------------------------------|
D|---------------------------------------------------------------|
A|---------------------------------------------------------------|
E|-0-/10-12--0-/10-12-0-/10-12--0-/10-12--12b-12---10------------|

e|---------------------------------------------------------------|
B|---------------------------------------------------------------|
G|---------------------------------------------------------------|
D|---------------------------------------------------------------|
A|------------------------------------------12b--12--10~~~~~~----|
E|--0-/10-12--0-/10-12-0-/10-12--0-/10--12-----------------------|

I was Looking Around And Saw That You Did Not Have A Spectacularily
Done "The Outlaw Torn".
It's A Favorite Off of The Load Album,Hope You Like It

ME25-ZW

***********************************

| x  Dead note
| h  Hammer-on
| p  Pull-off
| b  Bend
| /  Slide up
| \  Slide down
| ~  Vibrato

************************************
Suggest correction
comments
print report bad tab
15 comments total. Showing first comments.
-2 reply
Metal25 70 wrote on May 14 2004, 12:00 am

Yaeh Yeah In Cloubb!!

0 reply
forwhomthebells 20 wrote on January 28 2006, 10:26 am

?

+2 reply
K1nG_N07hinG 10 wrote on February 13 2006, 12:20 am

After James is done singing the lyrics, what effect are they using on that guitar to where it sounds like each string he hits fades in and out. It sounds so awesome. Does anyone know?

guest
You may want to rate the tab now too:
select rating
Wanna post a correction for this tab? Suggest correction