Oops, an error
Loading. Please wait.

The Outlaw Torn Tab

version 5
version 5
5,599 views 18 this week
1 commentread comment
1 2 3 4 5
x 5
add to favorites
launch autoscroll
font size
0
reset
how to read this tab
guitar tuner
Autoscroll
slow
fast
+/-
esc
set tempo
stop
Help us to improve Ultimate-Guitar.com Take our survey!
×
Author
Difficulty
Tuning
intermediate
D# G# C# F# A# D#
This is right, or at least close. i have the book, i was just going from memory. 
Any comments or questions please e-mail me at Fuzzymadface@hotmail.com
Tab Legend
-V.S.= volume swell
-pm.= palm mute
-~= vibrato
-b= bend
-\\\= tremolo picking
-h= hammer on
-p= pull off

Intro x7 (with wah)    8th time    
eb -----------------00|------------------|
Bb -------------------|------------------|
Gb -------------------|------------------|                       3
Db 3-2----------------|3-2-------33333333|    massive wah on the 3 
Ab 3-2-22-22-22-2-2---|3-2-22-22-33333333|    on tthe 8th time.  1 
Eb 1-0-00-00-00-0-0---|1-0-00-00-11111111| 
       pm..........        pm...

Chorus x4                                       Pre-Verse
eb---------------------------------------------|-------------|
Bb---------------------------------------------|-------------|
Gb---------------------------------------------|7--9----(9)\-|
Db---------------------------4b-----4b---4--4b-|7--9----(7)\-|
Ab-57---7---57---57---57---7-5-55-5-5-55-5--5-5|5--7----(7)\-|
Eb-00-0-0-0-00-0-00-0-00-0-0-------------------|0--0----(0)\-|
     pm  pm   pm   pm   pm

Verse
eb---------------------------------------------|
Bb---------------------------------------------|
Gb----------7--9----(9)\-----------------7--4--|
Db-4~-------7--9----(9)\--------7~-------7--4--|
Ab----------5--7----(7)\-----------------5--2--|
Eb----------0--0----(0)\-----------------0--0--|
  V.S                          V.S

Chorus x2

Chrous Alteration x2
eb-----------------------------------------------------|
Bb-----------------------------------------------------|
Gb-----------------------------------------------------|
Db-------------------------4b-----4b---4-4b------------|
Ab-57---7---57---577---7-7-5-55-5-5-55-5-5-5-----------|
Eb-00-0-0-0-00-0-000-0-0-0-----------------------------|
     pm  pm   pm    pm
 
Pre-Verse+Verse. then play the following....

eb-----------------------------------------|
Bb------------2------2---------------------|
Gb-7-4------4-2------2-4-----/-\-----------|
Db-7-4------4-0------0-4-----/-\-----------|
Ab-5-2------2----------2-----/-\-----------|
Eb-0-0------0----------0-----/-\-----------|

Chorus x2

Chorus Alteration2 x2
eb--------------------------------------------|
Bb--------------------------------------------|
Gb--------------------------------------------|
Db----------5--------5-----4b-----4b----4-4b--|
Ab-5-7------0-7------0-7-7-5-55-5-5-5-5-5-5-5-|
Eb-0-0-0000-0-0-0000-0-0-0--------------------|
      pm...    pm...

Bridge x2

eb----------------------------------------------------------------------|
Bb----------------------------------------------------------------------|
Gb-7-9-------7-----------------------------------------7-9-------7------|
Db-7-9-------7-7--7--5/7-7--5/7--7-7---5/7---5-5-5-5---7-9-------7-7--7-|
Ab-5-7-------5-7--7--5/7-7--5/7--7-7---5/7---5-5-5-5---5-7-------5-7--7-|
Eb-----00--00--5--5--3/5-5--3/5--5-5---3/5---3-2-3-3-------00--00--5--5-|

eb-------------------------|-------------------|
Bb-------------------------|-------------------|
Gb-------------------------|-------------------|
Db-5/7-7--5/7-7-7---77--5/7\5-xx-4-|--2--------|
Ab-5/7-7--5/7-7-7---xx--x---x-xx-x-|--2--------|
Eb-3/5-5--3/5-5-5---55--3/5\3-xx-2-|--0--------|

Pre-Solo
(all played as volume swells)

eb---------------------------------------------------------------------|
Bb---------------------------------------------------------------------|
Gb------------------------------------------------------12-14b-12------|
Db-----5-7b-5------------------5-7b-5--------------14~------------14b--|
Ab-7~---------7~---(7~)\---7~---------7~---(7~)\-----------------------|
Eb---------------------------------------------------------------------|

eb---------------------------------------------------------------------|
Bb---------------------------------------------------------------------|
Gb-12-14b-12-------12-14-12-14b----------------------------------------|
Db----------14p12-----------------------5-7~--9-----5------------5-7~--|
Ab----------------------------------7~----------5~----7~-----7~--------|
Eb---------------------------------------------------------------------|

eb-------------------------------------------------------------------|
Bb-------------------------------------------------------------------|
Gb-------------------------------------------------------------------|
Db-9-----5----------------7-9--------9-7-------9-7---9-10-12---------|
Ab---5~----7~-------5-5~-------5-5~-------3b~------------------------|
Eb--------------7~---------------------------------------------------|

Solo(with wah)
eb--------------------------------------------------------|
Bb-12\\\---12----12--12--12--12--12-----------------------| then 
Gb-12\\\---14b---14b-14b-14b-14b---14~-14~-14~-14~-14~-14~| use a slide
Db-12\\\--------------------------------------------------| on this part 
Ab--------------------------------------------------------| all the way down
Eb--------------------------------------------------------| the neck

eb---------------------------------------0h14h17-0h14h17-------0h14h17------|
Bb-------------------------------------------------------15h17---------15h17|
Gb-------------12h14--------------12h14-------------------------------------|
Db-------12h14--------------12h14-------------------------------------------|
Ab-12h14--------------12h14-------------------------------------------------|
Eb--------------------------------------------------------------------------|

eb-0h14h17b--17b---17b-17b-17-17b-19-19b-22b-22b--|
Bb------------------------------------------------|
Gb------------------------------------------------|
Db------------------------------------------------|
Ab------------------------------------------------|
Eb------------------------------------------------|

Bridge x2

I will tab out the outro later, this song is just too long to do all at once, 
check back in a few weeks for the rest. any comments or questions, feel free to e-
mail me at Fuzzymadface@hotmail.com
Suggest correction
comments
print report bad tab
1 comment total.
0 reply
fuzzymadface 31 Oct 09, 2010 12:28 PM


first part of solo

eb --------------------------------------------------------
Bb 12\\\--12---12--12--12--12------------------------------
Gb 12\\\--14b--14b-14b-14b-14b-12--------------------------
Db 12\\\-------------------------14~--14~-14~-14~-14~-14~--
Ab --------------------------------------------------------
Eb --------------------------------------------------------

guest
You may want to rate the tab now too:
select rating
Wanna post a correction for this tab? Suggest correction