Oops, an error
Loading. Please wait.

The Shortest Straw Tab

version 1
version 1

Intro

Solo

Whole song

Interactive

5,733 views 1 this week
no commentswrite comment
1 2 3 4 5
not so good
x 1
add to favorites
launch autoscroll
font size
0
reset
how to read this tab
guitar tuner
Tab Pro tools
  • play this tab
  • loop segment
  • change instrument
  • show fretboard
  • metronome
Autoscroll
slow
fast
+/-
esc
set tempo
stop
Contributor
The Shortest Straw
...And Justice for All (1988)
Metallica

With distortion

|--------------------------------------------------------------------------|
|--------------------------------------------------------------------------|
|--------------------------------------------------------------------------|
|-------------------------------------------------------------------3--3---|
|--------2-------------2-------5---3--3----------2----------2-------1--1-3-|
|--0--1--0-------0--1--0----0--3---1--1----0--1--0----0--1--0-----0------1-|
           P.M.        P.M.                      P.M.        P.M.

|--------------------------------------------------------------------------|
|--------------------------------------------------------------------------|
|--------------------------------------------------------------------------|
|----------------------------------3--------------------------------3--3---|
|--------2-------------2-------5---1--3----------2----------2-------1--1-3-|
|--0--1--0-------0--1--0----0--3------1----0--1--0----0--1--0-----0------1-|
           P.M.                                  P.M.        P.M.

|---------------------------------------|
|---------------------------------------|
|---------------------------------------|
|--------------------------------------3|
|--------2-------------------2-----5---1|
|--0--1--0--0--0--000--0--1--0--0--3----|

|---------------------------------------|
|---------------------------------------|
|---------------------------------------|
|----------------------------------3----|
|--------2-------------------2-----1-5--|
|--0--1--0--0--0--000--0--1--0--0----3--|

|---------------------------------------|
|---------------------------------------|
|---------------------------------------|
|--------------------------------------3|
|--------2-------------------2-----5---1|
|--0--1--0--0--0--000--0--1--0--0--3----|

|----------------------------------------------|
|----------------------------------------------|
|----------------------------------------------|
|----------------------------------3-3---------|
|--------2-------------------2-----1-1--5--3---|
|--0--1--0--0--0--000--0--1--0--0-------3--1---|

|---------------------------------------|
|---------------------------------------|
|---------------------------------------|
|--------------------------------------3|
|--------2-------------------2-----5---1|
|--0--1--0--0--0--000--0--1--0--0--3----|

|---------------------------------------|
|---------------------------------------|
|---------------------------------------|
|----------------------------------3----|
|--------2-------------------2-----1-5--|
|--0--1--0--0--0--000--0--1--0--0----3--|

|---------------------------------------|
|---------------------------------------|
|---------------------------------------|
|--------------------------------------3|
|--------2-------------------2-----5---1|
|--0--1--0--0--0--000--0--1--0--0--3----|

|----------------------------------------------|
|----------------------------------------------|
|----------------------------------------------|
|----------------------------------3-3---------|
|--------2-------------------2-----1-1--5--3---|
|--0--1--0--0--0--000--0--1--0--0-------3--1---|

|-------------------------|
|-------------------------|
|-------------------------|
|------------3------------|
|------2-----1--5--3------|
|--0-1-0--0-----3--1------|

|-------------------------|-------------------------------|
|-------------------------|-------------------------------|
|-------------------------|-------------------------------|
|------------8--7b--8-----|-------------------------------|
|--2-----/7------------7--|----------------3--3-----------|
|--0--0-------------------|-0--0---0-0-00-01-01-----------|

2nd Time Tail

|----------------5--5-----------|
|-0--0---0-0-00-03-03-----------|

3rd Time Tail

|----------------7--7-----------|
|-0--0---0-0-00-05-05-----------|

|----------------------------------------------|
|----------------------------------------------|
|-----------------3---2h3p2p0------------------|
|-------------2--------------------------------|
|---2------------------------------------------|
|---0--0--5------------------------------------|

Thats all for now, may add more later
comments
We did not receive enough feedback on this tab! Please rate:
print report bad tab
1 2 3 4 5
I want to post or [tab]
guest
You may want to rate the tab now too:
select rating
Please do not post tabs as comments. Select "correction" instead!