Oops, an error
Loading. Please wait.

The Small Hours Bass Tab

version 2
version 2

Whole song

Interactive

2,475 views 6 this week
1 commentread comment
1 2 3 4 5
excellent!
x 3
add to favorites
launch autoscroll
font size
0
reset
guitar tuner
Autoscroll
slow
fast
+/-
esc
set tempo
stop
Help us to improve Ultimate-Guitar.com Take our survey!
×
Author
Rest

come in after 3 times of guitar 2
                 
F|-------------|
C|-------------|
G|-------------|
D|-3-2--2-1----|
                           x3                        
F|------------------------|   F|-------------|        
C|------------------------|   C|-------------|         
G|------------------------|   G|-------------|         
D|--0-0--2h3-2h3--0-0--3--|   D|-3-2--2-1----|         
   
Verse 1                                Fill 1
F|------------------------|x4  F|--------------------|
C|------------------------|    C|--------------------|
G|------------------------|    G|-----5--------------|
D|--0-0--2h3-2h3--0-0--3--|    D|--/7----7-5---3---1-|

Verse 2:                                 Fill 2
F|------------------------|x6  F|-----------------------------------|
C|------------------------|    C|--------3h5-------5-------5-----4--|
G|------------------------|    G|--3h5-------5p3--------------------|
D|--0-0--2h3-2h3--0-0--3--|    D|-----------------------3-----2-----|

Main Riff:
F|------------------------|x2       
C|------------------------|         
G|------------------------|        
D|--0-0--2h3-2h3--0-0--3--|

Chorus:
F|----------------------------------|-----------------------------------|x3
C|-o--------------------------------|---------------------------------o-|
G|-o----------------5---------------|--------------5-------7---7h8p7--o-|
D|----0-0-0---5-7-----7-5-7--5-3----|--0-0-0---5-7----7-5---------------|

Main Riff:                x3                        
F|------------------------|   F|-------------|        
C|------------------------|   C|-------------|         
G|------------------------|   G|-------------|         
D|--0-0--2h3-2h3--0-0--3--|   D|-3-2--2-1----|

Verse 3:                  x4  Fill 3                      
F|------------------------|   F|------------------------------|  
C|------------------------|   C|------------------------------|    
G|------------------------|   G|-7----------5-7-5-------------|       
D|--0-0--2h3-2h3--0-0--3--|   D|-------5h7---------5---3---1--|

Verse 4:                  x6  Fill 3                      
F|------------------------|   F|-----------------------------| 
C|------------------------|   C|-------3h5-------------------|   
G|------------------------|   G|--3h5------5-----------------|       
D|--0-0--2h3-2h3--0-0--3--|   D|-----------------5---3--2--1-|

Chorus:
F|----------------------------------|-----------------------------------|x3
C|-o--------------------------------|---------------------------------o-|
G|-o----------------5---------------|--------------5-------7---7h8p7--o-|
D|----0-0-0---5-7-----7-5-7--5-3----|--0-0-0---5-7----7-5---------------|

                4 times,  then 
F|----------------|-------|
C|----------------|-------|
G|----------------|-------|
D|--0-----1---2-1-|-(0)---|

guitar speeds up
bass gets brief rest

come in when second guitar comes back in

F|------------------------------|--------------------------------|
C|------------------------------|--------------------------------|
G|------------------------------|--------------------------------|
D|--0-000-000-000-000-006-0-008-|--0-000-000-000-000-006-0-0032--|

Play this until then of the solo then immediately play:

F|-------------------------------|
C|-------------------------------|
G|-------------------------------|
D|--0-000-000-000-000-006-0-008--|

F|---------------------------------|----------------------------------|
C|---------------------------------|----------------------------------|
G|---------------------------------|----------------------------------|
D|--0-000-000-000-000-008--0-0010--|--0-000-000-000-000-0010--0-0012--|

F|---------------------------------|
C|---------------------------------|
G|---------------------------------|
D|--0-000-000-000-000-0012--0-012--|

Verse 5:                  x4  Fill 5                      
F|------------------------|   F|----------------------------|  
C|------------------------|   C|-------------------------22-|    
G|------------------------|   G|-------1h3------------------|     
D|--0-0--2h3-2h3--0-0--3--|   D|--3h5-------3-3---2---1-----|

Verse 6:                x4  Fill6                     
F|------------------------||F|-----------------------------------------------------|
C|------------------------||C|--------4h6------------------------------------------|
G|------------------------||G|--4h6-------4----------------------------------------|
D|--0-0--2h3-2h3--0-0--3--||D|-----------------5---3-3-3-3-3-3-3-3-2-2-2-2-1-1-1-1-|

                         x2
F|------------------------|
C|------------------------|
G|------------------------|
D|--0-0--2h3-2h3--0-0--3--|

Chorus:
F|----------------------------------|-----------------------------------|x3
C|-o--------------------------------|---------------------------------o-|
G|-o----------------5---------------|--------------5-------7---7h8p7--o-|
D|----0-0-0---5-7-----7-5-7--5-3----|--0-0-0---5-7----7-5---------------|

              3 times,   then
F|--------------------|---------------------------|
C|--------------------|---------------------------|
G|--------------------|----------------------1----|
D|--0----0-1-2---2-1--|--0----0-1-2---2-1------0--|

Suggest correction
What's this?
You can suggest a correction to this tab. Community and Mods will review your correction and vote to approve or reject it.
comments
We did not receive enough feedback on this tab! Please rate:
print report bad tab
1 2 3 4 5
1 comment total.
0 reply
AngelWolf 325 wrote on February 11 2009, 06:29 pm

thanks to who voted for this. its made my day:)

guest
You may want to rate the tab now too:
select rating
Please do not post tabs as comments. Select "correction" instead!