Oops, an error
Loading. Please wait.

The Unforgiven Iii Tab

version 1
66,638 views 9 this week
1 commentread comment
1 2 3 4 5
worth learning
x 7
add to favorites
launch autoscroll
font size
0
reset
how to read this tab
guitar tuner
Tab Pro tools
  • play this tab
  • loop segment
  • change instrument
  • show fretboard
  • metronome
×
Best way to learn
"The Unforgiven Iii"
Autoscroll
slow
fast
+/-
esc
set tempo
stop
Difficulty
novice
-------------------------------------------------------------------------------
                             The Unforgiven III - METALLICA
-------------------------------------------------------------------------------
Tabbed by: bgro
Email: bdrama@gmail.com

Tuning: Standard

****This is my first tab so be gentle!  It is for the verse of Metallica’s The 
III off of Death Magnetic!****

e|------------------------------------------------------------------|
B|------------------------------------------------------------------|
G|-----------4---------------4-------------------4------------------|
D|-------5h7------------5h7----5(bend)-------5h7-----7-7--4-4-------|
A|---5h7------------5h7------------------5h7---------5-5--2-2-------|
E|-0------------0-0--------------------0----------------------------|

e|----------------------------------------------------------------------|
B|----------------------------------------------------------------------|
G|-----------4--------------4---------------------4---------------------|
D|-------5h7------------5h7---5(bend)--------5h7-----7-7--4-4-----------|
A|---5h7------------5h7------------------5h7---------5-5--2-2-----------|
E|-0------------0-0--------------------0--------------------------------|

e|-------------------------------------------------------------------|
B|-------------------------------------------------------------------|
G|-------------------------------------------------------------------|
D|-9-9--5-5--7-7---------------9-9--5-5--7-7-------------------------|
A|-7-7--3-3--5-5--5-5--7-6-5---7-7--3-3--5-5-5-5--7-6-5---4-3-2------|
E|----------------3-3---8-7-6----------------3-3---8-7-6---5-4-3-----|
comments
print report bad tab
1 comment total.
+1 reply
LeAhWaZeRe wrote on April 30 2010, 03:12 pm

not that much detal :P

I want to post or [tab]
guest
You may want to rate the tab now too:
select rating
Please do not post tabs as comments. Select "correction" instead!