Oops, an error
Loading. Please wait.

The Unforgiven Iii Tab

version 2
457,559 views 393 this week
34 commentsread comments
1 2 3 4 5
x 88
add to favorites
launch autoscroll
font size
0
reset
how to read this tab
guitar tuner
Autoscroll
slow
fast
+/-
esc
set tempo
stop
Help us to improve Ultimate-Guitar.com Take our survey!
×
Author
Difficulty
intermediate
Metallica - The Unforgiven III
Heard the leak on youtube, and who couldn’t say this song is 
amazing. I did an attempt on the entire solo, though theres some
notes missing around the place, this can be used as a guide 
anyway. Enjoy!

Tuning: Standard E

Check out my band: www.myspace.com/triameraband

[Chorus]

0:55
E|--------------------|
B|--------------------|
G|--------------------|
D|---2---2---2-----2--|
A|--------------------|
E|-0---0---0---2h3----|

1:11
E|-----------------------------------|----------------------------------|
B|-----------------------------------|----------------------------------|
G|-----9----------------9------------|----------------------------------|
D|---5---5---9-10-9---5---5---9-10-9-|-----10-----7-9-7-----5-------5---|
A|-7-------7--------7-------7--------|---7----7-----------7---7---6---6-|
E|-----------------------------------|-8--------8-------7-------7-------|


[Verse]

1:36
E|---------------------------------------------------------------|
B|---------------------------------------------------------------|
G|---------------------------------------------------------------|
D|-----------5h7s9------------5h7s9-5-------5h7s9-7---7---4---4--|
A|-2---2-5h7--------2---2-5h7-----------5h7-------5---5---2---3--|
E|-0---0------------0---0----------------------------------------|

E|------------------------------------------------|------------------|
B|------------------------------------------------|------------------|
G|------------------------------------------------|------------------|
D|-9---9---5---5---7---7--------------------------|------------------|
A|-7---7---3---3---5---5---5---5---s7----6---5----|-4----3---2---1---|
E|-------------------------3---3-------8---7---6--|----5---4---3---2-|


[Bridge]

4:33
E|-----------------------------------------------------------------|
B|-----------------------------------------------------------------|
G|-----------------------------------------------------------------|
D|---2---2---2-------2---2---2-------2---2---2-------2---2---2-----|
A|---------------------------------------------0h2-----------------|
E|-0---0---0---2-3-2---2---2---3-5-3---3---3-------2---2---2---3-5-|


[Volume Swells]

4:41
E|----------------------------------|
B|----------------------------------|
G|----------------------------------|
D|----------------------------------|
A|-(7)----(9)----(10)----(12)--(9)--|
E|----------------------------------|


[Build Up]

5:04
E|--------------------------------|
B|--------------------------------|
G|--------------------------------|
D|--------------------------------|
A|--------------------------------|
E|-0----2h3-2-----3h5-3-----5h7-2-|

5:19
E|------0------------------------0--------------------|
B|------0------------------------0--------------------|
G|----------------------------------------------------|
D|-2--------------------------------------------------|
A|-2--------4s5-4-------5s7-5---------7s9-4-------5s7-|
E|-0--------2s3-2-------3s5-3---------5s7-2-------3s5-|

5:26
E|----------------|-----------------|-----------------|-----------------|
B|----------------|-----------------|-----------------|-----------------|
G|----------------|-----------------|-----------------|-----------------|
D|----------------|-----------------|-----------------|-----------------|
A|-2--2-2-2-2-4-5-|-4-4-4-4-4-4-5-7-|-5-5-5-5-5-5-7-9-|-4-4-4-4-4-4-5-7-|
E|-0--0-0-0-0-2-3-|-2-2-2-2-2-2-3-5-|-3-3-3-3-3-3-5-7-|-2-2-2-2-2-2-3-5-|


[Solo]

5:34
E|-----------------------|-----12-----------------12---------12------|
B|-14^------14^----------|--------15p12h15p12--15^--15p12-15^--15p12-|
G|-14^------14^--12------|-14^---------------------------------------|
D|------------------14---|-------------------------------------------|
A|-----------------------|-------------------------------------------|
E|-----------------------|-------------------------------------------|

5:41
E|----12---12-15^-12-12-15^-12-12-12-12-|
B|-15^--15^-----------------------------|
G|--------------------------------------|
D|--------------------------------------|
A|--------------------------------------|
E|--------------------------------------|

5:45
E|-12h15p12---12------------------------|-------------------------|
B|----------15--15-12-12-12-------------|-12h13p12---12-----------|
G|--------------------14^--14v12----12~~|----------14--14-12------|
D|-------------------------------14-----|-------------------14-12-|
A|--------------------------------------|-------------------------|
E|--------------------------------------|-------------------------|

5:49
E|-------------------------------------|
B|----12h13p12-------------------------|
G|-------------14p12----12h14p12-------|
D|-14----------------14----------14----|
A|-------------------------------------|
E|-------------------------------------|

5:51
E|------------------------------------------|
B|-12h13p12---------------------------------|
G|----------14p12-14p12---12h14p12----------|
D|---------------------14^--------14-12-14--|
A|------------------------------------------|
E|------------------------------------------|

5:53
E|----12---------------------------------------------------------------|
B|-15^--15-12----12h13p12----12----------12--12-12----------12--12-12--|
G|------------14----------14----14p12----12--12-12--14p12---12--12-12--|
D|------------------------------------14-----------------14------------|
A|---------------------------------------------------------------------|
E|---------------------------------------------------------------------|

5:56
E|----------------------------------------------|
B|-14^----14^----14^----14b15b14--12----12------|
G|-14^-12-14^-12-14^-12-14b15b14--12----12------|
D|-----------------------------------14----14---|
A|----------------------------------------------|
E|----------------------------------------------|

6:00
E|-------------------------------------------------------|
B|-----12-12-----12-12-----12-----12-12-----12-12-----12-|
G|-14^-------14^-------14^----14^-------14^-------14^----|
D|-------------------------------------------------------|
A|-------------------------------------------------------|
E|-------------------------------------------------------|

6:03
E|-----------------------------|-----------------------------------|
B|-----------------------------|--------------------14---14---14---|
G|--------------12-14-s16------|----------12-14-s16-14^--14^--14^--|
D|-14--14-12-14-----------14---|-14-12-14--------------------------|
A|-----------------------------|-----------------------------------|
E|-----------------------------|-----------------------------------|

6:14
E|----12-15p14p12-15p14p12-15p14p12-15p14p12-|
B|-15^---------------------------------------|
G|-------------------------------------------|
D|-------------------------------------------|
A|-------------------------------------------|
E|-------------------------------------------|

6:17
E|-12-12-12-19p17p15-19p17p15-19p17p15-19p17p15-|
B|----------------------------------------------|
G|----------------------------------------------|
D|----------------------------------------------|
A|----------------------------------------------|
E|----------------------------------------------|

6:18
E|-19p17p15-19p17p15----------19p17p15-19p17p15----------|
B|-------------------19p17p15-------------------19p17p15-|
G|-------------------------------------------------------|
D|-------------------------------------------------------|
A|-------------------------------------------------------|
E|-------------------------------------------------------|

6:24
E|-----------------12-----------------------------------------|
B|-15^-15^-15~~-15^--15p12---12-15p12----12-13p12----12h14-12-|
G|------------------------14^---------14----------14----------|
D|------------------------------------------------------------|
A|------------------------------------------------------------|
E|------------------------------------------------------------|

6:27
E|-------------------------------------|
B|-------------------------------------|
G|-12--11--10----9^-9-9-7--------------|
D|---13--12--11-----------9-7-5-4-2----|
A|-------------------------------------|
E|-------------------------------------|


************************************

| (n)  Ghost note
| h    Hammer-on
| p    Pull-off
| b    Bend
| ~    Vibrato
| s    Slap  

************************************
Suggest correction
comments
print report bad tab
34 comments total. Showing first comments.
+5 reply
jpc675 10 Sep 06, 2008 11:22 AM

I gave you a 5 just for getting it up so quick and basically on point....you are missing th little piano part, but there are 4 tabs for that already. Good song for sure. James vocals are great on this one. He takes a lot of crap for his crooning, but you also have to give credit where credit is due. The 3 Unforgivens', I believe, are matches to the 3 Eastwood/Leone Westerns. Totally, Unforgiven 1 is the A minor chord from the circle part in the Good, Bad and the Ugly, this Piano intro, and most notably the horns, are from the entire series. Ennio Morricone. Good stuff.

0 reply
Gresp 10 Sep 08, 2008 12:19 PM

Yeah! Fucking great tab man.

0 reply
guitarplayer-k6 66 Sep 09, 2008 04:46 PM

thank you!!!

guest
You may want to rate the tab now too:
select rating
Wanna post a correction for this tab? Suggest correction