Oops, an error
Loading. Please wait.

The Unforgiven Iii bass

version 3
version 3

Whole song

3,642 views 1 this week
1 commentread comment
1 2 3 4 5
x 3
add to favorites
×
Save as Personal and add changes to this tab that will be seen only by you. Learn more ›
×
You can save this tab as Personal to edit and correct it or add notes. All changes will be seen only by you. Learn more »
launch autoscroll
font size
0
reset
guitar tuner
backing track
0:00
0:00
edit
Autoscroll
slow
fast
+/-
esc
set tempo
stop
Author
Difficulty
Band : Metallica
Album : Death Magnetic
Song : The Unforgiven III
Bassist : Rob Trujillo
Tuning : Standard


Intro : 

G|-------------------------------|
D|-------------------------------|
A|-----------------3-3--2--------|
E|-0---1/2-0--1/2---------3-0----|
B|-------------------------------|


G|-----------------------|
D|-----------------------|
A|-------------3-3--2----|
E|-0--3--4--5---------3--|
B|-----------------------|

G|-------------------------------|
D|-------------------------------|
A|-------------------------------|
E|-0--1/2-0--1/2-0---0-----------|
B|-------------------------------|

Verse

G|-------------------------------|
D|--------------5----------------|
A|----------5-7---7--------------| 
E|---0-5-7-----------------------|
B|-------------------------------|

G|---------------------------|
D|--------------5-7----------|
A|----------5-7--------------|     x4
E|---0-5-7-------------------|
B|---------------------------|

G|---------------------------|
D|--------------5------------|
A|----------5-7----7-7-------| 
E|-----5-7-------------7-7---|
B|--0------------------------|


G|-------------------------------|
D|-------------------------------|
A|---7-7-----5-5-----------------|
E|-------7-7---------------------|
B|----------------8-8------------|

G|-------------------------------|
D|-------------------------------|
A|---7---5-----------------------|
E|-----7---7-6----0--------------|
B|--------------8----------------|

G|-------------------------------|
D|-------------------------------|
A|---7-7-----5-5-----------------|
E|-------7-7---------------------|
B|----------------7-7------------|

G|-------------------------------|
D|-------------------------------|
A|---7---5-----------------------|
E|-----7---7-6----------------0--|
B|--------------8-7h8--8-7-8-----|

Chorus

G|-------------------------------|
D|-------------------------------|
A|-----------------3-3--2--------|
E|-0---1/2-0--1/2---------3-0----|
B|-------------------------------|

                                    x2

G|----------------------------|
D|----------------------------|
A|------------33-444----------|
E|---22-33-44--------44-33----|
B|----------------------------|

Pre-Verse

G|-------------------------------|
D|-------------------------------|
A|-------------------------------|
E|-0--1/2-0--1/2-0---0-----------|
B|-------------------------------|

Verse

G|-------------------------------|
D|--------------5----------------|
A|----------5-7---7--------------| 
E|---0-5-7-----------------------|
B|-------------------------------|

G|---------------------------|
D|--------------5-7----------|
A|----------5-7--------------|     
E|---0-5-7-------------------|
B|---------------------------|     x4


G|---------------------------|
D|--------------5------------|
A|----------5-7----7-7-------| 
E|-----5-7-------------7-7---|
B|--0------------------------|


G|-------------------------------|
D|-------------------------------|
A|---7-7-----5-5-----------------|
E|-------7-7---------------------|
B|----------------8-8------------|

G|-------------------------------|
D|-------------------------------|
A|---7---5-----------------------|
E|-----7---7-6----0--------------|
B|--------------8----------------|

G|-------------------------------|
D|-------------------------------|
A|---7-7-----5-5-----------------|
E|-------7-7---------------------|
B|----------------8-8------------|

G|-------------------------------|
D|-------------------------------|
A|---7---5-----------------------|
E|-----7---7-6----------------0--|
B|--------------8-7h8--8-7-8-----|

Chorus

G|-------------------------------|
D|-------------------------------|
A|-----------------3-3--2--------|
E|-0---1/2-0--1/2---------3-0----|
B|-------------------------------|

                                    x2
G|----------------------------|
D|----------------------------|
A|------------33-444----------|
E|---22-33-44--------44-33----|
B|----------------------------|

G|-------------------------------|
D|-------------------------------|
A|-------------------------------|
E|-0-1-2-0--1-2-0--0-------------|
B|-------------------------------|

Build of "Forgive Me Forgive Me Not"

G|-------------------------------|
D|-------------------------------|
A|-------------------------------|
E|-00000000-1/222222222p0--------|
B|-------------------------------|
                                     x4

G|-------------------------------|
D|-------------------------------|
A|-------------------------------|
E|-333333333h4p222221111---------|
B|-------------------------------|

Solo - Kirk Hamster

G|-------------------------------|
D|--------------5----------------|
A|----------5-7---7--------------| 
E|---0-5-7-----------------------|
B|-------------------------------|


G|---------------------------|
D|--------------5-7----------|
A|----------5-7--------------|     x5
E|---0-5-7-------------------|
B|---------------------------|


G|---------------------------|
D|--------------5------------|
A|----------5-7----7-7-------| 
E|---0-5-7-------------7-7---|
B|---------------------------|

G|-------------------------------|
D|-------------------------------|
A|---7-7-----5-5-----------------|
E|-------7-7---------------------|
B|----------------8-8------------|

G|-------------------------------|
D|-------------------------------|
A|---7---5-----------------------|
E|-----7---7-6----0--------------|
B|--------------8----------------|

G|-------------------------------|
D|-------------------------------|
A|---7-7-----5-5-----------------|
E|-------7-7---------------------|
B|----------------8-8------------|

G|-------------------------------|
D|-------------------------------|
A|---7---5-----------------------|
E|-----7---7-6----------------0--|
B|--------------8-7h8--8-7-8-----|

G|-----------|
D|-----------|
A|-----------|
E|--0--0--0--|
B|-----------|

Outro

G|---------------------------|
D|---------------------------|
A|----------2-3---2----------|
E|--0--2--3-----------0------|
B|---------------------------|

G|-------------------------------|
D|-------------------------------|
A|--------------3-3-2------------|
E|-0-1-2-0--1-2-------3----------|
B|-------------------------------|

G|-------------------------------|
D|-------------------------------|
A|------------33-444-4-----------|
E|---22-33-44----------44-33\0---|
B|-------------------------------|


G|-------------------------------|
D|-------------------------------|
A|-------------------------------|
E|-1-2-0--1-2-0--0---------------|
B|-------------------------------|

| /  slide up
| \  slide down
| h  hammer-on
| p  pull-off
| ~  vibrato
| +  harmonic
| x  Mute note
===============================================================================

            
            
Suggest correction
Creating personal tab
Creating personal tab
You can edit any tab online and save it as your Personal.

You can edit, replace or remove any tab part or add personal notes – all changes will be seen only by you.

Personal tabs can be accessed anytime from any device, even offline.
Learn more »
Give kudos to tab author, rate the tab!
1 2 3 4 5
comments
print report bad tab
1 comment total.
0 reply
MrTwister24 10 Jun 21, 2017 10:55 PM

I'm pretty sure all the 1/2 parts are actually 2/3

guest
You may want to rate the tab now too:
select rating
Wanna post a correction for this tab? Suggest correction