Oops, an error
Loading. Please wait.

The Unforgiven Iii bass

version 5
version 5

Whole song

64 views 1 this week
no commentswrite comment
1 2 3 4 5
3 more votes to show rating
add to favorites
×
Save as Personal and add changes to this tab that will be seen only by you. Learn more ›
×
You can save this tab as Personal to edit and correct it or add notes. All changes will be seen only by you. Learn more »
launch autoscroll
font size
0
reset
guitar tuner
backing track
0:00
0:00
edit
Autoscroll
slow
fast
+/-
esc
set tempo
stop
About this tab version
Tabbed to the master bass track. Was this info helpful? Yes No
-------------------------------------------------------------------------------
                             The Unforgiven III - Metallica
-----------------------------------------------------------------------------

been meaning to finish this i hope everyone likes this this tab is 100% accurate to the master recording 
please enjoi - MetallicaDMRTL

*PLEASE NOTE, 5 string needed if 4 kick off the G and do BEAD*
song was simple enough fun to play too, so enjoi

Master Bass Link:

http://www.youtube.com/watch?v=24mJqmZqtS4

1:02
G|-------------|----------------------------|------------------------|
D|-------------|----------------------------|------------------------|
A|-------------|-----------------3--3--2--2-|----------2--3--3--2--2-|
E|-0-----------|-0---2h3-0---0h2------------|-0--2--3----------------|
B|-------------|----------------------------|------------------------|

G|----------------------------|
D|----------------------------|
A|----------------------------|
E|-0---2h3-0---2h3-0---0------|
B|----------------------------|

1:34
G|---------------|---------------|-------------|----------------|
D|---------------|---------------|-------------|----------------|
A|---------------|---------------|-------------|-5--5--*--------|
E|-------3-5-7---|-------3-5-7-3-|-3-----3-5-7-|-------0-7--7\--|
B|-5-3-5-------5-|-5-3-5---------|---3-5-------|--------------5-|

G|---------------|---------------|---------------|------------|
D|---------------|---------------|---------------|-----9-9\---|
A|---------------|---------------|-------------5-|-5/7--------|
E|-------3-5-7---|-------3-5-7-3-|-3-----3-5-7---|------------|
B|-5-3-5-------5-|-5-3-5---------|---3-5---------|----------5-|

G|---------------|---------------|-------------|---------------|---------------|
D|---------------|---------------|-------------|---------------|---------------|
A|---------------|-------------5-|-5--*--------|---------------|---------------|
E|-------3-5-7---|-3-----3-5-7---|----0-7--7\--|-------3-5-7---|-------3-5-7-3-|
B|-5-3-5-------5-|---3-5---------|-----------5-|-5-3-5-------5-|-5-3-5---------|

G|---------------|-------------|----------------|-----------------|----------------|
D|---------------|-------------|----------------|-----------------|----------------|
A|-------------5-|-5--*------7-|-7\-3-3-5-5-----|-7----6---5------|---3-3-5-5------|
E|-3-----3-5-7---|----0-7-7----|------------3-3-|----8---7---6--0-|-0---------3-3/-|
B|---3-5---------|-------------|----------------|-----------------|----------------|

G|-----------------|----------------|-------|-------|
D|-----------------|----------------|-------|-------|
A|-7----6---5----4-|---3---2---1----|-------|-------|
E|----8---7---6----|-5---4---3----2-|-0-----|-0-----|
B|-----------------|----------------|-------|-------|

2:25
G|----------------------------|-----------------------------|
D|----------------------------|-----------------------------|
A|-----------------3--3--2--2-|-------------2-2-3---3--2--2-|
E|-0---2h3-0---2h3------------|-0---2-2-3-------------------|
B|----------------------------|-----------------------------|

G|----------------------------|-------------------------------------------------------------|
D|----------------------------|----------------------------9\-------------------------------|
A|-----------------3--3--2--2-|-------------2-2-3---3--2/9----------------------------------|
E|-0---2h3-0---2h3------------|-0---2-2-3---------------------0---2h3-0---2h3-0------0------|
B|----------------------------|-------------------------------------------------------------|

3:04
G|---------------|---------------|-------------|----------------|
D|---------------|---------------|-------------|----------------|
A|---------------|---------------|-------------|-5--5--*--------| x2
E|-------3-5-7---|-------3-5-7-3-|-3-----3-5-7-|-------0-7--7\--|
B|-5-3-5-------5-|-5-3-5---------|---3-5-------|--------------5-|

G|---------------|---------------|------------|---------------|---------------|
D|---------------|---------------|-----9-9\---|---------------|---------------|
A|---------------|-------------5-|-5/7--------|---------------|---------------|
E|-------3-5-7---|-3-----3-5-7---|------------|-------3-5-7---|-------3-5-7-3-|
B|-5-3-5-------5-|---3-5---------|----------5-|-5-3-5-------5-|-5-3-5---------|

G|---------------|-------------|----------------|-----------------|---------------|
D|---------------|-------------|----------------|-----------------|---------------|
A|-------------5-|-5--*------7-|-7\-3-3-5-5-----|-7----6---5------|---3-3-5-5-----|
E|-3-----3-5-7---|----0-7-7----|------------3-3-|----8---7---6--0-|-0---------3-3-|
B|---3-5---------|-------------|----------------|-----------------|---------------|

G|-----------------|----------------|-------|-------|
D|-----------------|----------------|-------|-------|
A|-7----6---5----4-|---3---2---1----|-------|-------|
E|----8---7---6----|-5---4---3----2-|-0-----|-0-----|
B|-----------------|----------------|-------|-------|

3:53
G|----------------------------|-----------------------------|
D|----------------------------|-----------------------------|
A|-----------------3--3--2--2-|-------------2-2-3---3--2--2-|
E|-0---2h3-0---2h3------------|-0---2-2-3-------------------|
B|----------------------------|-----------------------------|

G|----------------------------|-------------------------------------------------------------|
D|----------------------------|----------------------------9\-------------------------------|
A|-----------------3--3--2--2-|-------------2-2-3---3--2/9----------------------------------|
E|-0---2h3-0---2h3------------|-0---2-2-3---------------------0---2h3-0---2h3-0------0------|
B|----------------------------|-------------------------------------------------------------|

5:03
G|----------------|----------------|----------------|----------------|
D|----------------|----------------|----------------|----------------|
A|----------------|----------------|----------------|----------------|
E|-0--0-0-0-0-2h3-|-2--2-2-2-2-3h5-|-3--3-3-3-3-5h7-|-2--2-2-2-2-3-2-|
B|----------------|----------------|----------------|----------------|

G|----------------|----------------|----------------|----------------|
D|----------------|----------------|----------------|----------------|
A|----------------|----------------|----------------|----------------| x2
E|-0--0-0-0-0-2h3-|-2--2-2-2-2-3h5-|-3--3-3-3-3-5h7-|-2--2-2-2-2-3p2-|
B|----------------|----------------|----------------|----------------|

G|----------------|----------------|----------------|----------------------|
D|----------------|----------------|----------------|----------------------| (the "p" notes are punchy)
A|----p-p-p-p-----|----p-p-p-p-----|----p-p-p-p-----|----------------------|
E|-0--0-0-0-0-2h3-|-2--2-2-2-2-3h5-|-3--3-3-3-3-5h7-|-2--2/14-14-14-14-14\-|
B|----------------|----------------|----------------|----------------------|

5:32
G|---------------|---------------|---------------|--------------|
D|---------------|---------------|---------------|--------------|
A|---------------|---------------|-------------5-|-5------------|
E|-------3-5-7---|-------3-5-7-3-|-3-----3-5-7---|----5h7--7\---|
B|-5-3-5-------5-|-5-3-5---------|---3-5---------|------------5-|

G|---------------|---------------|---------------|------------|
D|---------------|---------------|---------------|-----9-9\---|
A|---------------|---------------|-------------5-|-5/7--------|
E|-------3-5-7---|-------3-5-7-3-|-3-----3-5-7---|------------|
B|-5-3-5-------5-|-5-3-5---------|---3-5---------|----------5-|

G|---------------|---------------|---------------|-------------|
D|---------------|---------------|---------------|-------------|
A|---------------|---------------|-------------5-|-5--*--------| x4
E|-------3-5-7---|-------3-5-7-3-|-3-----3-5-7---|----0-7--7---|
B|-5-3-5-------5-|-5-3-5---------|---3-5---------|-----------5-|

G|------------------|-----------------|---------------|
D|------------------|-----------------|---------------|
A|-7-7\-3-3-5-5-----|-7----6---5------|---3-3-5-5-----|
E|--------------3-3-|----8---7---6--0-|-0---------3-3-|
B|------------------|-----------------|---------------|

G|-----------------|----------------|-------|-------|-------|
D|-----------------|----------------|-------|-------|-------|
A|-7----6---5----4-|---3---2---1----|-------|-------|-------|
E|----8---7---6----|-5---4---3----2-|-0-----|-0-----|-0-----|
B|-----------------|----------------|-------|-------|-------|

6:42
G|-----------------------|
D|-----------------------|
A|-------------2---3---2-|
E|-0---2---3-------------|
B|-----------------------|

6:50
G|----------------------------|-----------------------------|
D|----------------------------|-----------------------------|
A|-----------------3--3--2--2-|-------------2-2-3---3--2--2-|
E|-0---2h3-0---2h3------------|-0---2-2-3-------------------|
B|----------------------------|-----------------------------|

G|----------------------------|-------------------------------------------------------------|
D|----------------------------|----------------------------9\-------------------------------|
A|-----------------3--3--2--2-|-------------2-2-3---3--2/9----------------------------------|
E|-0---2h3-0---2h3------------|-0---2-2-3---------------------0---2h3-0---2h3-0------0------|
B|----------------------------|-------------------------------------------------------------|

sorry it took so long i hope everyone enjois


************************************

| h  Hammer-on
| *  Natural harmonic
| \  Slide down
| /  Slide up
| p  Pull-off

************************************
Suggest correction
Creating personal tab
Creating personal tab
You can edit any tab online and save it as your Personal.

You can edit, replace or remove any tab part or add personal notes – all changes will be seen only by you.

Personal tabs can be accessed anytime from any device, even offline.
Learn more »
Give kudos to tab author, rate the tab!
1 2 3 4 5
comments
print report bad tab
guest
You may want to rate the tab now too:
select rating
Wanna post a correction for this tab? Suggest correction