Oops, an error
Loading. Please wait.

The Unforgiven Iii Tab

version 5
50,933 views 18 this week
3 commentsread comments
1 2 3 4 5
accurate
x 6
add to favorites
launch autoscroll
font size
0
reset
how to read this tab
guitar tuner
Autoscroll
slow
fast
+/-
esc
set tempo
stop
Help us to improve Ultimate-Guitar.com Take our survey!
×
Author
Band: Metallica
Album: Death Magnetic
Song: The Unforgiven III
Tuning: Standard (EADGBE)

[Intro: Piano and Orchestra]


  Guitar 1(Clean)
e|------------------|
B|------------------|
G|------------------|
D|----2--2--2----2--|    Repeat x8
A|------------------|
E|--0---------2h3---|


  Guitar 1(Clean)
e|----------------------------------------------------------------------|
B|----------------------------------------------------------------------|
G|----------------------------------------------------------------------|
D|----2--2--2----2----2--2--2----2---2--2--2--2----2--2----1--2---------|
A|----------------------------------3------------2-------2--------------|
E|--0---------2h3---0---------2h3---------------------------------------|
 |                                                                           x2
 |Guitar 2(Clean)
e|----------------------------------------------------------------------|
B|------------------------------------1---------------------------------|
G|------9-------5-------9-------5-------0----2-------0------------------|
D|----5---5---9---9---5---5---9---9--2-----5---5---2---2---1--5-4h5p4---|
A|--7-------7-------7-------7-------3-----3------2-------2--------------|
E|----------------------------------------------------------------------|

  Guitar 1
e|-------------------------------------------------|
B|-------------------------------------------------|
G|-------------------------------------------------|
D|----2--2--2----2----2--2--2----2----2--2--2------|
A|-------------------------------------------------|
E|--0---------2h3---0---------2h3---0----------0---|
 |
 |Guitar 2
e|-------------------------------------------------|
B|-------------------------------------------------|
G|-------------------------------------------------|
D|-------------------------------------------------|
A|-------------------------------------------------|
E|------------2h3---0---------2h3---0----------0---|


Verse:


  Guitar 1 & 2 (Both Distorted)
e|----------------------------------------------------------|
B|----------------------------------------------------------|
G|----------------------------------------------------------|
D|------5h7/9-----------5h7/9--5~--------5h7/9---7-7---4-4--|   Repeat x4
A|---5h7-------------5h7--------------5h7--------5-5---2-2--|
E|-0------------0--0----------------0-----------------------|

  Guitar 1
e|---------------------------------------------------------------------------|
B|---------------------------------------------------------------------------|
G|---------------------------------------------------------------------------|
D|-9-9--5-5--7-7-----------------9-9--5-5--7-7-------------------------------|
A|-7-7--3-3--5-5--5-5--7~-6--5---7-7--3-3--5-5--5-5--7~-6-5--4~-3--2--1------|
E|----------------3-3---8--7--6\----------------3-3---8--7-6~-5--4--3--2--0--|
 |                     PM  PM                         PM PM   PM PM PM
 |Guitar 2 (w/wah & dist)
e|---------------------------------------------------------------------------|
B|---------------------------------------------------------------------------|
G|---------------------------------------------------------------------------|
D|-9~---10~---7~---9~-------------9~---10~--7~---9~--------------------------|
A|---------------------------------------------------------------------------|
E|---------------------------------------------------------------------------|


Chorus:

  Guitar 1(Clean)
e|----------------------------------------------------------------------|
B|----------------------------------------------------------------------|
G|----------------------------------------------------------------------|
D|----2--2--2----2----2--2--2----2---2--2--2--2----2--2----1--2---------|
A|----------------------------------3------------2-------2--------------|
E|--0---------2h3---0---------2h3---------------------------------------|
 |                                                                           x2
 |Guitar 2(Clean)
e|----------------------------------------------------------------------|
B|------------------------------------1---------------------------------|
G|------9-------5-------9-------5-------0----2-------0------------------|
D|----5---5---9---9---5---5---9---9--2-----5---5---2---2---1--5-4h5p4---|
A|--7-------7-------7-------7-------3-----3------2-------2--------------|
E|----------------------------------------------------------------------|

  Guitar 1
e|-------------------------------------------------|
B|-------------------------------------------------|
G|-------------------------------------------------|
D|----2--2--2----2----2--2--2----2----2--2--2------|
A|-------------------------------------------------|
E|--0---------2h3---0---------2h3---0----------0---|
 |
 |Guitar 2
e|-------------------------------------------------|
B|-------------------------------------------------|
G|-------------------------------------------------|
D|-------------------------------------------------|
A|-------------------------------------------------|
E|------------2h3---0---------2h3---0----------0---|


after that comes the verse and the chorus one more time, then this:

  Guitar 1(Clean)
e|--------------------------------------------------------------|
B|--------------------------------------------------------------|
G|--------------------------------------------------------------|    x4
D|----2--2--2-------2--2--2-------2--2--2--------2--2--2--------|
A|-----------------------------------------0-2------------------|
E|--0---------2-3-2---------3-5-3--------------2----------3-5---|


  Guitar 1(Clean)
e|--------------------------------------------------------------|
B|--------------------------------------------------------------|
G|--------------------------------------------------------------|
D|----2--2--2-------2--2--2-------2--2--2--------2--2--2--------|
A|-----------------------------------------0-2------------------|
E|--0---------2-3-2---------3-5-3--------------2----------3-5---|
 |                                                                     x2
 |Guitar 2(Distorted)
e|--------------------------------------------------------------|
B|--------------------------------------------------------------|
G|--------------------------------------------------------------|
D|--------------------------------------------------------------|
A|-----------------------------------------0-2------------------|
E|--0---------2-3-2---------3-5-3--------------2----------3-5---|


  Guitar 1 & 2 (Both distorted)
e|---------------------------------------------|
B|---------------------------------------------|
G|---------------------------------------------|
D|-2-------------------------------------------|
A|\2-------4-------5---0-2-4-------2--2-2-2-2--|
E|\0---2-3-2---3-5-3-------2---3-5-0--0-0-0-0--|
                                      PM----|

e|-----------------------------------------------------|
B|-----------------------------------------------------|
G|-----------------------------------------------------|
D|-----------------------------------------------------|
A|------4-4-4-4-4-4------5-5-5-5-5-5--0-2-4-4-4-4-4-4--|
E|--2-3-2-2-2-2-2-2--3-5-3-3-3-3-3-3------2-2-2-2-2-2--|
          PM------|        PM------|        PM------|





Haven't tabbed the solo out yet that's all I have for now. I might tab it later but I
usually tab stuff I don't like. So nor now..


Enjoy! =]


      =========================================

/ : slide up
\ : slide down
~ : vibrato
b : bend
r : Release bend(go from higher note to lower)
pr: pre bend
h : hammer on
p : pull off
Suggest correction
What's this?
You can suggest a correction to this tab. Community and Mods will review your correction and vote to approve or reject it.
comments
print report bad tab
3 comments total.
0 reply
iainmcke 22 wrote on September 22 2008, 11:14 am

i much prefer this tab to all the other ones out there - to me it sounds far more accurate. hence why i gave it the 5*. lets hope it stays that way, its a good tab, with the solo would be the best out there

0 reply
squierkid71 177 wrote on September 25 2008, 11:13 am

thanks man!

0 reply
liatopia 53 wrote on August 2 2009, 12:50 pm

5 stars but im just wondering, which guitar(1 or 2) is lead?
very good tab! first one i looked at and it rocks! now i need to learn unforgiven 1 and 2

guest
You may want to rate the tab now too:
select rating
Please do not post tabs as comments. Select "correction" instead!