Oops, an error
Loading. Please wait.

The Unforgiven Tab

version 2
version 2
156,052 views 93 this week
6 commentsread comments
1 2 3 4 5
excellent!
x 24
add to favorites
launch autoscroll
font size
0
reset
how to read this tab
guitar tuner
Tab Pro tools
  • play this tab
  • loop segment
  • change instrument
  • show fretboard
  • metronome
×
Best way to learn
"The Unforgiven"
Autoscroll
slow
fast
+/-
esc
set tempo
stop
	
Title: 		The Unforgiven
Band: 		Metallica
Album:		Black Album
Words:		James Hetfield, Lars Ulrich and Kirk Hammett
Music:		James Hetfield, Lars Ulrich and Kirk Hammett
Tempo:		Slow rock, 69
Transcribed By:	"DaMatrix"
My Email:	robertleeuwestein@yahoo.com 
Original site:	http://members.tripod.co.uk/robertleeuwestein/
		(check for more quality tabs  )
Last edit:	28-okt-2001
Parts:		INTRO, VERSE, CHORUS, INTERLUDE, SOLO, CODA, OUTRO, LYRICS, TAB EXPLANATION
Missing:	Nothing
Other tabs 
made by me:	none, this is the first one :)

The unforgiven is an easy song to play. Even beginners can play everything including the solo. 
This a tab which much detail so print this if you want a really good tab, even the duration of
every note is included. If you think that there are any 'errors' in this tab, then mail me the 
correction. I would really appreciate that.

I you want to add this tab on your site then please leave the tab as it is. If you are not sure
that you have the originial tab mail me. Also, if somebody is using my tab then please mail me.
You can always get the newest verion of the tab at my website.

If you see any white lines between the guitar lines, then make sure you resolution is 
1024 x 768 or greater and that you are using Notepad.

Well, let's play this song.


INTRO***********************************************************

Gtr I  (E A D G B E) - 'Acous.'
Gtr II (E A D G B E) - 'Elec. clean tone'
	
 4/4			 (let ring
  Gtr I			  w/fingers)
           W                E   S S S S S S S S S S S S S S  4x
|-----------------------||-----------------------------------||
|-----------------------||o-0-------0-----0-----0-----1-----o||
|-----------------------||------2-----2-----2-----2-----2----||
|-----------------------||--------2-----2-----2-----2-----2--||
|-----------------------||o-0-------------------------------o||
|-----------------------||-----------------------------------||


  Gtr II
                    ~                           ~~
  Q    E E a Q  S S E      Q        E E a Q   S E.
|-------------------------------|-------------------------------|
|-------------------------------|-------------------------------|
|------2-4-4h5--5-4-2-----------|---------2-4-4h5---5-2---------|
|-------------------------------|-------------------------------|
|-------------------------------|-------------------------------|
|-------------------------------|-------------------------------|
|
|
| Gtr I
| E S S S S S S S S S S S S S S   E S S S S S S S S S S S S S S
|-------------------------------|-------------------------------|
|-0-----0-----0-----1-----1-----|-0-----0-----1-----1-----1-----|
|---2-----2-----2-----2-----2---|---2-----2-----2-----2-----2---|
|-----2-----2-----2-----2-----2-|-----2-----2-----2-----2-----2-|
|-0-----------------------------|-0-----------------------------|
|-------------------------------|-------------------------------|


  Gtr II
                     ~
  Q   E E a Q    S S E              Q    E E a Q    S E.
|-------------------------------|-------------------------------|
|-------------------------------|-------------------------------|
|-----2-4-4h5----5-4-2----------|--------2-4-4h5----5-2---------|
|-------------------------------|-------------------------------|
|-------------------------------|-------------------------------|
|-------------------------------|-------------------------------|
|
|
| Gtr I
| E S S S S S S S S S S S S S S   E S S S S S S S S S S S S S S
|-------------------------------|-------------------------------|
|-0-----0-----0-----1-----1-----|-0-----0-----1-----1-----1-----|
|---2-----2-----2-----2-----2---|---2-----2-----2-----2-----2---|
|-----2-----2-----2-----2-----2-|-----2-----2-----2-----2-----2-|
|-0-----------------------------|-0-----------------------------|
|-------------------------------|-------------------------------|


  Gtr II
                            ~
  Q  E E a Q  a E. S    S S Q  E Q  E a E
|---------------------|---------------------|
|---------------------|---------------------|
|-2--2-4-4h5--4h5--5--|-5-4----4----2-2h4---|
|---------------------|-----5--5S2----------|
|---------------------|---------------------|
|---------------------|---------------------|
|
|
| Gtr I
| E E E E E S S E S S   S S E E E E E E a E
|---------------------|---------------------|
|-------0-1-----1---1-|---------------------|
|-----2---------------|-----0---0-----2-2h4-|
|---2---------2---2---|---------0-2-2-------|
|-0---------3---------|---2-----------------|
|---------------------|-3-----3-------------|


  Gtr II
  ~        ~                  ~
  Q  E E a Q   a E. S     S S Q  E Q  S S S S
|-----------------------|-----------------------|
|--------------3h5--5---|-5-3-------------------|
|-2--2-4-4h5------------|-----4--4S1--4-1-2h4---|
|-----------------------|-----------------------|
|-----------------------|-----------------------|
|-----------------------|-----------------------|
|
|
| Gtr I
| E S S E E E S S E S S   S S E E E E E S S S S
|-----------------0---0-|-----------------------|
|---------0-1-------1---|-1-3-0---3-------------|
|-2-----2-------2-------|-----------1-1-4-1-2h4-|
|-----2-------3---------|-----------------------|
|---0-------------------|-----------------------|
|-----------------------|-------3---------------|


  Gtr II
  ~
  W                                           W
|-------------------------------|----------------------------|
|-------------------------------|----------------------------|
|-2-----------------------------|----------------------------|
|-------------------------------|----------------------------|
|-------------------------------|----------------------------|
|-------------------------------|----------------------------|
|
|
| Gtr I
| E S S S S S S S S S S S S S S   E S S S S S S S S S S S E.
|-------------------------------|----------------------------|
|-------0-----0-----0-----1-----|-0-----0-----0-----0-----1--|
|---2-----2-----2-----2-----2---|---2-----2-----2-----2------|
|-----2-----2-----2-----2-----2-|-----2-----2-----2-----2----|
|-0-----------------------------|-0--------------------------|
|-------------------------------|----------------------------|


VERSE**********************************************************

Gtr I  (E A D G B E) - 'Distortion'
Gtr II (E A D G B E) - 'Distortion'

   4/4  
    Gtr I
              ~  PM|                PM|
    E E E a E Q  S S E   E E E E Q  S S E  3x
||---------------------|-------------------||
||o------------------8-|-8-7-7------------o||
||--7-5-4-4h5----------|-------5-5------7--||
||------------5--------|-------------------||
||o--------------------|------------0-0---o||
||---------------0-0---|-------------------||
|
|
|   Gtr II
|                PM|                PM|
|   E E E E Q    S S E   E E E E Q  S S E  3x
||---------------------|-------------------||
||o--------------------|------------------o||
||-------------------2-|-2-2-2-------------||
||--2-2--------------0-|-0-0-0-2-2------2--||
||o-0-0-3-2-2----------|-------0-0--0-0-0-o||
||--------0-0----0-0---|-------------------||


  Gtr I			(2/4)
            ~  PM|
  E E E a E Q  S S E   E E E E
|--------------------|---------|
|------------------8-|-8-7-7---|
|-7-5-4-4h5----------|-------5-|
|-----------5--------|---------|
|--------------------|---------|
|--------------0-0---|---------|
|
|
| Gtr II		(2/4)
|              PM|
| E E E E Q    S S E   E E E E
|--------------------|---------|
|--------------------|---------|
|-2-2--------------2-|-2-2-2---|
|-2-2--------------0-|-0-0-0-2-|
|-0-0-3-2-2----------|-------0-|
|-------0-0----0-0---|---------|


  Gtr I
       PM|     PM|     PM|     PM|
   S S S S S S S S S S S S S S S S   Q   S  S S S H
|----------------------------------|-----------------|
|----------------------------------|-----------------|
|----------------------------------|-----------------|
|-10p0-----9p0-----7p0-----5p0-----|-5--(5)----------|
|------0-0-----0-0-----0-0-----0-0-|-3--(3)h5p3p0-5--|
|----------------------------------|--------------3--|
|
|
| Gtr II
|      PM|     PM|     PM|     PM|
| E    S S S S S S S S S S S S S S   Q   S  S S S H
|----------------------------------|-----------------|
|----------------------------------|-----------------|
|----------------------------------|-----------------|
|-2--------9-0-----7-0-----5-0-----|-5--(5)----------|
|-0----0-0-----0-0-----0-0-----0-0-|-3--(3)h5p3p0-5--|
|----------------------------------|--------------3--|


  Gtrs I and II					       (2/4)
       PM|     PM|     PM|     PM|
   S S S S S S S S S S S S S S S S   Q   S  S S S H    H
|----------------------------------|-----------------|------|
|----------------------------------|-----------------|------|
|----------------------------------|-----------------|------|
|-10p0-----9p0-----7p0-----5p0-----|-5--(5)----------|------|
|------0-0-----0-0-----0-0-----0-0-|-3--(3)h5p3p0-5--|-2----|
|----------------------------------|--------------3--|-0----|

CHORUS**************************************************************

Gtr I  (E A D G B E) - 'Acous.'
Gtr II (E A D G B E) - 'Elec. clean tone'

4/4
  Gtr II
                              ~
    Q  E E a Q  a E. S    S S Q  E Q  E a E
||----------------------|---------------------|
||o---------------------|---------------------|
||--2--2-4-4h5--4h5--5--|-5-4----4----2-2h4---|
||----------------------|-----5--5S2----------|
||o---------------------|---------------------|
||----------------------|---------------------|
|
|
| Gtr I
|   E E E E E S S E S S   S S E E E E E E a E
||----------------------|---------------------|
||o-------0-1-----1---1-|---------------------|
||------2---------------|-----0---0-----2-2h4-|
||----2---------2---2---|---------0-2-2-------|
||o-0---------3---------|---2-----------------|
||----------------------|-3-----3-------------|


  Gtr II
  ~        ~                  ~
  Q  E E a Q   a E. S     S S Q  E Q  S S S S
|-----------------------|------------------------||
|--------------3h5--5---|-5-3-------------------o||
|-2--2-4-4h5------------|-----4--4S1--4-1-2h4----||
|-----------------------|------------------------||
|-----------------------|-----------------------o||
|-----------------------|------------------------||
|
|
| Gtr I
| E S S E E E S S E S S   S S E E E E E S S S S
|-----------------0---0-|------------------------||
|---------0-1-------1---|-1-3-0---3-------------o||
|-2-----2-------2-------|-----------1-1-4-1-2h4--||
|-----2-------3---------|------------------------||
|---0-------------------|-----------------------o||
|-----------------------|-------3----------------||

  Gtr II
  ~
  W                                           W
|-------------------------------|----------------------------|
|-------------------------------|----------------------------|
|-2-----------------------------|----------------------------|
|-------------------------------|----------------------------|
|-------------------------------|----------------------------|
|-------------------------------|----------------------------|
|
|
| Gtr I
| E S S S S S S S S S S S S S S   E S S S S S S S S S S S E.
|-------------------------------|----------------------------|
|-------0-----0-----0-----1-----|-0-----0-----0-----0-----1--|
|---2-----2-----2-----2-----2---|---2-----2-----2-----2------|
|-----2-----2-----2-----2-----2-|-----2-----2-----2-----2----|
|-0-----------------------------|-0--------------------------|
|-------------------------------|----------------------------|


INTERLUDE********************************************************

Gtr I  (E A D G B E) - 'Elec. clean tone'
Gtr II (E A D G B E) - 'Acous.'

  Gtr I
                              ~~                                ~~~~~~~~~~
                |-3-|
  S S S S +S  S T T T S S S a Q.    S. T +S  S +T  S. S. T +S  a E.    +Q
|--------------------------------|-(0)-0-(0)-0-(0)-0--0--0-(0)-------------|
|--------------------------------|--0--1-(1)-3-(3)-5--3--1-(1)-1h3-----(3)-|
|---4-5-7-(7)-5-4h5p4---4--------|-----------------------------------------|
|-7-------------------7---5-5h7--|-----------------------------------------|
|--------------------------------|-----------------------------------------|
|--------------------------------|-----------------------------------------|
|
|
| Gtr II
| E S S S S S S S S S S S S S S    E S S S S S S S S S S S S S S
|--------------------------------|-------------------------------|
|-0-----0-----0-----0-----1------|-0-----0-----0-----0-----1-----|
|---2-----2-----2-----2-----2----|---2-----2-----2-----2-----2---|
|-----2-----2-----2-----2-----2--|-----2-----2-----2-----2-----2-|
|-0------------------------------|-0-----------------------------|
|--------------------------------|-------------------------------|


  Gtr I
                              ~~~~~~~~                     ~~
  E  S S E S S a S S S S S S E    +S  S S S S S S S S S a Q.
|----3S5S3-2--------------------|-------------------------------|
|----3S5S3-3---3h5-3-----3------|-------------------------------|
|--------------------5-4---4----|-------------------5-----------|
|----------------------------5--|-(5)-------------5---5-5-7-----|
|-------------------------------|---------3S5-6-7---------------|
|-------------------------------|-----3-5-----------------------|
|
|
|  Gtr II
| E S S S S S S S S S S S S S S   E S S S S S S S S S S S S S S
|-------------------------------|-------------------------------|
|-0-----0-----0-----0-----1-----|-0-----0-----0-----0-----1-----|
|---2-----2-----2-----2-----2---|---2-----2-----2-----2-----2---|
|-----2-----2-----2-----2-----2-|-----2-----2-----2-----2-----2-|
|-0-----------------------------|-0-----------------------------|
|-------------------------------|-------------------------------|


    Gtr I
                       ~   ~~~~~~     ~~~ ~~~~~         ~~~~~~~          ~~~~~~~             ~~
      |-3-|
  S S T T T S S S  S S E S S +S  S  S S   +S  a  S  S  S  +S   a  S  S  S  +S   a  S  S  S  Q
|--------------------7---7---------10---|----------12---------------14---------------15----17-|
|---8-7h8p7---7-8-10---8---8-(8)-8----8-|-(8)-8S10----10-(10)-10S12----12-(12)-12S14----14----|
|-----------9---------------------------|-----------------------------------------------------|
|---------------------------------------|-----------------------------------------------------|
|---------------------------------------|-----------------------------------------------------|
|---------------------------------------|-----------------------------------------------------|
|
|
|  Gtr II
| E         S S S S S S S S S S S S S S   E   S S S S S S S S S S S S S S
|---------------------------------------|---------------------------------|
|-0-------------0-----0-----0-----1-----|-0-------0-----0-----0-----1-----|
|-----------2-----2-----2-----2-----2---|-----2-----2-----2-----2-----2---|
|-------------2-----2-----2-----2-----2-|-------2-----2-----2-----2-----2-|
|-0-------------------------------------|-0-------------------------------|
|---------------------------------------|---------------------------------|


SOLO********************************************************************************************

Gtr I (E A D G B E)  - 'Distortion'
Gtr II (E A D G B E) - 'Distortion'

 4/4
  Gtr I
              ~~			       (hold bend)
  Q    Q    S E.  E S    S   S S S S S S S S E E   +s  S  S S
|--------------------------|----------------------------------|
|-7b8--7b8-----------------|----------------------------------|
|-7b9--7b9--5--------------|--------------------------------5-|
|-------------7---7-7pb9r7-|-5---------------------------/7---|
|--------------------------|---7-5S3-5-3-------3b5-(3)--------|
|--------------------------|-------------5-3-5----------------|
|
|
| Gtr 2	 
|                    PM|                                PM|
| E E E E Q          S S E         E E E E Q            S S E
|--------------------------|----------------------------------|
|--------------------------|----------------------------------|
|------------------------2-|-2-2-2----------------------------|
|-2-2--------------------0-|-0-0-0-2-2----------------------2-|
|-0-0-3-2-2----------------|-------0-0------------------0-0-0-|
|-------0-0------------0-0-|----------------------------------|

										         (bend, release and repeat.
										          listen to the CD for 
  Gtr I									                  the right timing         )	
  ~                                ~~~~      ~~~~~~~~~~       ~~~ ~~~~~~       ~~~~~~~
  S T T a S T T  S T  T  S  T  T   E    S    S    +S    S  S  S    +S   S  S  S  +S  S   E.    S  E.    S  S     S
|---------------------------------------------------------------|------------------------------------------------------|
|-------------------------------------[15]----------------13----|---------15-------------------------------------------|
|-7-5-7-7S9-7-9-11-9-11-12-11S12-[14]------[14]-([14])-14----14-|-(14)-14----14-(14)----20b22r20-20b22r20-20b22r20b22--|
|---------------------------------------------------------------|--------------------x/--------------------------------|
|---------------------------------------------------------------|------------------------------------------------------|
|---------------------------------------------------------------|------------------------------------------------------|
|
|
| Gtr 2												
|                                                         PM|
| E E E E Q                                               S S E   E E E E S E                   E                  S E
|---------------------------------------------------------------|------------------------------------------------------|
|---------------------------------------------------------------|------------------------------------------------------|
|-------------------------------------------------------------2-|-2-2-2-----4b5r================4b5r===============4---|
|-2-2---------------------------------------------------------0-|-0-0-0-2--------------------------------------------2-|
|-0-0-3-2-2-----------------------------------------------------|-------0-0------------------------------------------0-|
|-------0-0-----------------------------------------------0-0---|------------------------------------------------------|  Gtr I			  (hold bend)					     (hold bend)
    ~~~~~~~~                                                                          ~~
    Q        S      S  S  S      Q   E.     S    S      S  S  S  T  T  S  S  S       Q   E   S  s

|------------------------20b23==20--20pb23r20-|-20pb23r20-17-17-20p17----17-----------------------|
|-(20)pb22--20pb22r20-17----------------------|-----------------------19----20pb22==20---------10-|
|---------------------------------------------|---------------------------------------------/9----|
|---------------------------------------------|-----------------------------------------17-------|
|---------------------------------------------|---------------------------------------------------|
|---------------------------------------------|---------------------------------------------------|
|
|
| Gtr 2
|                                       PM|                                                 PM|
| E E E E Q                             S S E   E E E E Q                                   S S E
|---------------------------------------------|---------------------------------------------------|
|---------------------------------------------|---------------------------------------------------|
|-------------------------------------------2-|-2-2-2---------------------------------------------|
|-2-2---------------------------------------0-|-0-0-0-2-2---------------------------------------2-|
|-0-0-3-2-2-----------------------------------|-------0-0-----------------------------------0-0-0-|
|-------0-0-----------------------------0-0---|---------------------------------------------------|  Gtr I								(2/4)
                                        ~~
   |----3-----| |----3----| |----3----|
   S S S S  S S S S S S S S S S S S S S E.   S    S  S  S  S  S  S  S  S
|-10p9-7-9----7--------------------------------|----12-------12-------12--|
|----------10---8p7---7------------------------|-13----13-------13--------|
|-------------------9---9-7S5-7-5S4-5-4-2--/14-|----------14-------14-----|
|----------------------------------------------|--------------------------|
|----------------------------------------------|--------------------------|
|----------------------------------------------|--------------------------|
|
|
| Gtr 2								(2/4)
|                                        PM|
| E E E E Q                              S S E   E    E    E    E    E
|----------------------------------------------|--------------------------|
|----------------------------------------------|--------------------------|
|-2-2----------------------------------------2-|-2----2----2--------------|
|-2-2----------------------------------------0-|-0----0----0----2----2----|
|-0-0-3-2-2------------------------------------|----------------0----0----|
|-------0-0------------------------------0-0---|--------------------------|  Gtr I
                                          ~~~                        ~~~~~~~~~~~~~
   S  S  S  S  S  S  S  S  S  S  S  S  S  E.    Q       S     S  S  E.      Q      S  S
|-------12-------12-------12-------12--------|------------------------------------17-19-|
|-13-------13-------13-------13-------13-----|---------------------20b22---20b22--------|
|----14-------14-------14-------14-------14--|-19pb21--19b21r19-17----------------------|
|--------------------------------------------|------------------------------------------|
|--------------------------------------------|------------------------------------------|
|--------------------------------------------|------------------------------------------|
|
|
| Gtr 2
|                PM|     PM|     PM|     PM|
| E              S S S S S S S S S S S S S S   Q                          S  S S S H
|--------------------------------------------|------------------------------------------|
|--------------------------------------------|------------------------------------------|
|--------------------------------------------|------------------------------------------|
|-2------------------9p0-----7p0-----5p0-----|-5--------------------------5-------------|
|-0--------------0-0-----0-0-----0-0-----0-0-|-3-------------------------(3)h5p3-0-5----|
|--------------------------------------------|-------------------------------------3----|  Gtr I
                                                                                                          ~~~~~~~
   S  S  S  S  T  T  T  S     T  T  T  S.    T  S  S  S      T  T  S      T  T   Q       S      S  S  S  +Q.    T  T  S
|-20-19-17-19-17h19p17-------17------------------------------------------------|-----------------------------------------|
|----------------------20b22----20p17-------20-17------------------------------|----------------------20-(20)------------|
|-------------------------------------19b21-------19-19pb21r19-17-19pb21r19p17-|-19pb21--19pb21r19-17-----------18h20p18-|
|------------------------------------------------------------------------------|-----------------------------------------|
|------------------------------------------------------------------------------|-----------------------------------------|
|------------------------------------------------------------------------------|-----------------------------------------|
|
|
| Gtr 2
|            PM--|           PM--|            PM--|           PM--|
|  S     S   S   S  S     S  S   S  S     S   S   S  S     S  S   S             Q   S  S S S H
|------------------------------------------------------------------------------|----------------------------------------|
|------------------------------------------------------------------------------|----------------------------------------|
|------------------------------------------------------------------------------|----------------------------------------|
|-10--p--0----------9--p--0---------7--p--0----------5--p--0-------------------|-5---------------------------5----------|
|------------0---0-----------0---0------------0---0-----------0---0------------|-3--------------------------(3)h5p3-0-5-|
|------------------------------------------------------------------------------|--------------------------------------3-|  Gtr I
   ~~         ~~~~~~~~
   H       S  E.  +H.
|-------|------------------|
|-17----|-18p17--(17)------|
|-------|------------------|
|-------|------------------|
|-------|------------------|
|-------|------------------|
|
|
| Gtr 2
| H
|-------|------------------|
|-------|------------------|
|-------|------------------|
|-------|------------------|
|-2-----|------------------|
|-0-----|------------------|


CODA******************************************************************************************

Gtr I (E A D G B E) - 'Acous.'

  Am C   G   Em         Am       G          G    E
 4/4
                        ~                   ~~~~~~~~~~~~
  W      H   Q  E a E   Q  E E a Q  E E   a H    Q.   E
|------|--------------|-----------------|---------------|
|------|--------------|---------------3-|-3h5----3----3-|
|-2----|--------2-2h4-|-2--2-4-4h5--5---|---------------|
|------|--------------|-----------------|---------------|
|------|--------------|-----------------|---------------|
|------|--------------|-----------------|---------------|


OUTRO******************************************************************************************

Here you can play the chords or just play the melody.


Gtr I (E A D G B E) - 'Acous.'

    Am        C         G        E
     Gtr I
     ~        ~             ~
     Q  E E a Q  E. S   S S Q  E E E E a E
||--------------------|--------------------|
||o-------------------|--------------------|
||---2--2-4-4h5--5--5-|-5-4----4S1-1-2-2h4-|
||--------------------|-----5--------------|
||o-------------------|--------------------|
||--------------------|--------------------|


  Am       C           G        E
  ~        ~               ~
  Q  E E a Q  a E. S   S S Q  E E E E a E
|--------------------|--------------------|
|-------------3h5--5-|-5-3----------------|
|-2--2-4-4h5---------|-----4--4S1-1-2-2h4-|
|--------------------|--------------------|
|--------------------|--------------------|
|--------------------|--------------------|


  Am       C         G        E
  ~        ~             ~
  Q  E E a Q  E. S   S S Q  E E E E a E
|------------------|--------------------|
|------------------|--------------------|
|-2--2-4-4h5--5--5-|-5-4----4S1-1-2-2h4-|
|------------------|-----5--------------|
|------------------|--------------------|
|------------------|--------------------|


  Am       C         G          E
  ~        ~               ~
  Q  E E a Q  a E.   S S S Q  E E E E a E
|------------------|-----------------------||
|-------------3h5--|-5-5-3----------------o||
|-2--2-4-4h5-------|-------4--4S1-1-2-2h4--|| Repeat and Fade out.
|------------------|-----------------------||
|------------------|----------------------o||
|------------------|-----------------------||


LYRICS******************************************************************************************

New blood joins this earth and quickly he's subdued.
Through constant pain, disgrace, the young boy learns their rules.
With time, the child draws in this wipping boy done wrong.
Deprived of all his toughts the young man struggles on and on.
He's knwon, oo, a vow unto his own that never from this day his will they'll take away.

What I've felt,
What I've known,
Never shined through in what I've shown
Never be,
Never see.
Won't see what might have been.

What I've felt,
What I've known,
Never shined through in what I've shown
Never free.
Never me.
So I dub thee unforgiven.

Dedicate their lives to running all of his.
He tries to please them all, this bitter man he is.
Throughout his life the same, he's battled constantly.
This fight he cannot win.
A tired man they see no longer cares.
The old man then prepares to die regretfully.
That old man here is me.

What I've felt,
What I've known,
Never shined through in what I've shown
Never be,
Never see.
Won't see what might have been.

What I've felt,
What I've known,
Never shined through in what I've shown
Never free.
Never me.
So I dub thee unforgiven.

(solo)

Never free.
Never me.
So I dub the unforgiven.

You labeled me.
I'll label you.
So I dub the unforgiven.

(repeat and fade out)


===========


pre-solo (clean):
1)
e-------------------------0-0-0-0-0-0-0-------------------------
B-------------------------0-1/3/5\3\1/3--8/10\8-7--5-3-----3----
G----4-5-7-4h5p4---4---------------------7/9-\7-7------5-4---4--
D--7-------------5---5-7---------------------------------------5
A---------------------------------------------------------------
E---------------------------------------------------------------


2)
e---------------------
B---------------------
G----------------5----
D--------------5---5-7
A------3-5/6/7--------
E--3-5----------------


3)
e-------------------------7-----10------12-------14-------15----17
B--8-8p7---7-8---7-8-10-8---8-8----8/10----10/12----12/14----14---
G--------9-----9--------------------------------------------------
D-----------------------------------------------------------------
A-----------------------------------------------------------------
E-----------------------------------------------------------------


Solo (distorted)
   ^  ^      ^
e-----------------------------------
B--7--7-----------------------------
G--7--7-5---------------------------
D---------7~~7-5--------------------
A----------------7-5-3-5-3-------0-3
E--------------------------5-3-0----
                    pm..............

                                   AH       AH        AH
e----------------------------------10--------8--------10---
B-------------------7---7-8-7-8-10----10--10---10--10----10
G-----5-7-5-7/9-7-9---9------------------------------------
D--/7------------------------------------------------------
A----------------------------------------------------------
E----------------------------------------------------------

   ^   ^   ^    ^  ^                     ^
e---------------20-20--20-17-20p17----17---
B--20-20--20-17--------------------20----20
G------------------------------------------
D------------------------------------------
A------------------------------------------
E------------------------------------------

e--7-9-10-9----9-----------------------------12------- (7 times)
B-----------10---8-7-5-7-5-3-1-3-1-0------13----13----
G------------------------------------2/14----------14-
D-----------------------------------------------------
A-----------------------------------------------------
E-----------------------------------------------------

   ^  ^    ^     ^  ^                            
e-----------------------17-19-20-19-17-19-17----17---------
B---------------20--20-----------------------20----20-17---
G--19-19--19-17------------------------------------------19
D----------------------------------------------------------
A----------------------------------------------------------
E----------------------------------------------------------

e------------------------------------
B------------20---17h18p17~~~17h18p17
G--19--19-17-------------------------
D------------------------------------
A------------------------------------
E------------------------------------


===========

Live "Unforgiven" Intro
written and performed by Hetfield
as heard on Live Shit: Binge and Purge San Diego, 1992
tab by Phil Boyle; ibzrg470@apk.net


Remember this is played on an electric/accoustic guitar, the
timbre won't sound the same on your average electric.

e--------------------- play this   ----------------------------...
B--------------------- a few times ---------------------0-0----...
G--------------------- (without    -------(5)-7h9p7--4------2--...
D----------6h7p6---6-- open E)     --7-9-10-------------------2...
A----//7-8-------8---7 then end    ---------------------0------...
E--0------------------ with this   ----------------------------... 
====
comments
print report bad tab
6 comments total. Showing first comments.
+1 reply
kornrules09 wrote on February 27 2005, 12:00 am

perfect man, awesome

+1 reply
loomis559 wrote on June 18 2005, 12:00 am

sounds good for me! Great goob!

+1 reply
Rivers wrote on January 15 2006, 01:39 pm

great song, great tab

I want to post or [tab]
guest
You may want to rate the tab now too:
select rating
Please do not post tabs as comments. Select "correction" instead!