Oops, an error
Loading. Please wait.

Thorn Within Bass Tab

version 1
version 1

Whole song

Interactive

638 views 1 this week
no commentswrite comment
1 2 3 4 5
worth learning
x 1
add to favorites
launch autoscroll
font size
0
reset
guitar tuner
Tab Pro tools
  • play this tab
  • loop segment
  • change instrument
  • show fretboard
  • metronome
Autoscroll
slow
fast
+/-
esc
set tempo
stop
Metallica
Thorn Within
written by Hetfield, Ulrich & Hammett
as performed on Load
tabbed by: Steve Gorenburg


Tune all guitars down 1/2 step 

  HI-HAT
|-----------|------------------------------|
|-----------|------------------------------|
|-----------|------------------------------|
|-----------|--5----(5)--5-----5----(5)--5-|

  HALF TIME FEEL
|--------------------------------------------------------------------
|--------------------------------------------------------------------
|--------------------------------------------------------------------
|-5---5-5-5-5----5-5--5----5-5-5-0-3-0--3/5--5-5-5-5---5-5--5--5-5-5-

END HALF TIME FEEL
-------------|
-------------|
-------------|
-0--3--0-----|

  BASS FIG 1                              END FIG 1
|--------------------------------------------------------|
|--------------------------------------------------------|
|--------------------------------------------------------| 3x's
|-2-2-0-2-2-0-2-2-0-2-2-0-2-2-0-2-0-2-2-2-2-0-3--3--2--0-|

|-----------------------------------------------|
|-----------------------------------------------|
|----4---3----2-(2)--7--(7)-(7)-(7)-(7)---------|
|-2----2----2--------0--(0)-(0)-(0)-(0)-----0-3-|

  1,2 VERSES
|----------------------------------------------------------------------
|----------7------------------------------9----------------------------
|----------------------------------------------------------------------
|-3/5---5-----5--5---5-5-5-0-5-0-5/7--7-7----7--(7)--X-7-7/8-7\3--3----

-----------------------------------------------------------------------
--5-----5\4----------4---4----------9----------------4-------------7---
-----------------------------------------------------------------------
-----3-------2--2-2----2----2/7-7-7---7-7\0-3-2--2-2----0-3--3/5--5--5-

-----------------------------------------------------------------------
-----------------------------------------------------------5-----------
-------------------------9---9------9----------------------------------
-5---5-5-5-0-5-0-5/7-7-7-7---7-7-7--7--7-7-7-8-7\5--3--3-3----3-0-3-2--

-----------------------------------------------------------|
--------4--------------------------------------------------|
-----------------------------------------------------------|
--2-2-2---2-0-3-2/7--7-7-7-7-7-7-7-7-7-5-5-5-5-5-5-5-5-0-3-|

  CHORUS W/ BASS FIG 1 (3x's)

  BASS FIG 1A              END FIG 1A
|-----------------------------------|-------------------|
|-----------------------------------|-------------------|
|-----------------------------------|-------------------|
|-2-2-0-2-2-0-2-2-0-2-2-0-2-2-5-2-0-|-2-2-2-2-0-3-3-2-0-|

  BASS FIG 2                        END FIG 2
|------------------------------------------------|
|------------------------------------------------|
|------------------------------------------------|
|-3-3--X-X-3-3-0-2-3-3--X-X-3-3-0-2-3-3--0-3-3-0-|

    HALF TIME FEEL   1 TIME

|----------------------------------------------------------------------
|----------------------------------------------------------------------
|-7---(7)---(7)---(7)--------------------------------------------------
|-0---(0)---(0)---(0)-------0-3-0--3/5-5-5-5-5-5-5-5-5-5-5-5-0-3-0-3/5-

-----------------------------------------------------------------------
-----------------------------------------------------------------------
-----------------------------------------------------------------------
-5-5-5-5-5--5-5-5-5-5-0-3-0--3-3-X-X-3-3-0-2-3-3--X-X-3-3-0-2-3-0-2-3--

                                     GUITAR SOLO
-----------------------------------|-----------------------------------
-----------------------------------|--------7----------7---------------
-----------------------------------|-----------------------------------
-0-2--3-3--X-X-3-3--3-3-3--3-0-3-0-|-3-5--5---5-5--5-5----0-5-0--5/7---

-----------------------------------------------------------------------
------9--------9-----9-----9----------5-------------4----------------9-
-----------------------------------------------------------------------
-7-7----7-7-7-----7-----7-----7\3-3-3---3-3-3\2-2-2---2-2-2/7--7-7-7---

                   3 VERSE
----------------|-------------------------------------------------------
------4---------|---------7----------------------------9----------------
----------------|---------------------------------------------9-7-------
-7\2------0-3-0-|--3/5--5-----5-5--5-5-5-0-5-0-5/7-7-7-----7-------10-7-

------------------------------------------------------------------------
------------------5---------------4------4------------------------------
------------------------------------------------------------------------
-7H8-7H8--7\3-3-3----3-3--3\2-2-2----2-2----/7-7-7-7-7-5H7-7-7-7-5-5-5--

---------------|
---------------|
---------------|
-5-5-5-5-5-0-3-|

    BASS FIG 2      
                    OUTRO W/ BASS FIG 1 (4x's)
    W/ BASS FIG 1A  
                    W/ BASS FIG 1B...|---------------------------------|
                                     |---------------------------------|
                                     |---------------------------------|
                                     |-2-2-0-2-2-0-2-2-0-2-2-0-2-0-5-3-|
     ...........2x's..........
     BASS FIG 1A   BASS FIG 1B 
                                BASS FIG 1A

|---------------------------------------------------|
|---------------------------------------------------|
|---------------------------------------------------|
|-2-2-0-2-2-0-2-2-0-2-2-0-2-0-5-3-2----(2)-----(2)/-|

 
comments
We did not receive enough feedback on this tab! Please rate:
print report bad tab
1 2 3 4 5
I want to post or [tab]
guest
You may want to rate the tab now too:
select rating
Please do not post tabs as comments. Select "correction" instead!