Oops, an error
Loading. Please wait.

To Live Is To Die Bass

version 1
version 1

Whole song

58 views 3 this week
no commentswrite comment
1 2 3 4 5
3 more votes to show rating
add to favorites
launch autoscroll
font size
0
reset
guitar tuner
backing track
0:00
0:00
Autoscroll
slow
fast
+/-
esc
set tempo
stop
Author
Difficulty
Tuning
intermediate
E A D G
[Verse]

G|-----14-------14----|----12-------12----|--9-----------10------------|
D|--------14-------14-|-------12-------12-|----9------------10---------|
A|--12-------12-------|-10-------10-------|7-----7-5-7-8-------8-10----|
E|--------------------|-------------------|----------------------------|

G|------14------------|----12-------12----|--9-----------10------10----|
D|---------14---------|-------12-------12-|----9------------10------10-|
A|---12-------12/14\12|-10-------10-------|7-----7-5-7-8-------8-------|
E|--------------------|-------------------|----------------------------|

G|-----14-------14----|----12-------12----|--9-----------10------------|
D|--------14-------14-|-------12-------12-|----9------------10---------|
A|--12-------12-------|-10-------10-------|7-----7-5-7-8-------8-10----|
E|--------------------|-------------------|----------------------------|

G|------14------------|----12-------12----|--9-----------10------10----|
D|---------14---------|-------12-------12-|----9------------10------10-|
A|---12-------12/14\12|-10-------10-------|7-----7-5-7-8-------8-------|
E|--------------------|-------------------|----------------------------| 

G|-----14-------14----|----12-------12----|--9-----------10------------|
D|--------14-------14-|-------12-------12-|----9------------10---------|
A|--12-------12-------|-10-------10-------|7-----7-5-7-8-------8-10----|
E|--------------------|-------------------|----------------------------|

G|------14------------|----12-------12----|--9-----------10------10----|
D|---------14---------|-------12-------12-|----9------------10------10-|
A|---12-------12/14\12|-10-------10-------|7-----7-5-7-8-------8-------|
E|--------------------|-------------------|----------------------------| 

G|-----14-------14----|----12-------12----|--9-----------10------------|
D|--------14-------14-|-------12-------12-|----9------------10---------|
A|--12-------12-------|-10-------10-------|7-----7-5-7-8-------8-10----|
E|--------------------|-------------------|----------------------------|

G|------14------------|----12-------12----|--9-----------10------10----|
D|---------14---------|-------12-------12-|----9------------10------10-|
A|---12-------12/14\12|-10-------10-------|7-----7-5-7-8-------8-------|
E|--------------------|-------------------|----------------------------| 

G|-----14-------14----|----12-------12----|--9-----------10------------|
D|--------14-------14-|-------12-------12-|----9------------10---------|
A|--12-------12-------|-10-------10-------|7-----7-5-7-8-------8-10----|
E|--------------------|-------------------|----------------------------|

G|------14------------|----12-------12----|--9-----------10------10----|
D|---------14---------|-------12-------12-|----9------------10------10-|
A|---12-------12/14\12|-10-------10-------|7-----7-5-7-8-------8-------|
E|--------------------|-------------------|----------------------------| 

[Chorus]

G|--------|--------|--------|------|------|------|------|------|------|------|---------|
D|-----5--|-----5--|-----7--|---5--|---4--|---3--|---5--|--7---|--5---|--4---|--3------|
A|-0/3---3|-0/3---3|-0/5---5|-3---3|-2---2|-1---1|-3---3|-5---5|-3---3|-2---2|-1---1---|
E|--------|--------|--------|------|------|------|------|------|------|------|---------|

That's pretty much it. There is a pause before it plays again but that's it.

https://www.youtube.com/watch?v=-TeK76qBL5o

This is the video I used for a reference.

***********************************
| /   Slide up
| \   Slide down
| h   Hammer-on
| p   Pull-off
| ~   Vibrato
| +   Harmonic
| x   Dead note
| b   Bend
| pb  Pre-bend
| br  Bend release
| pbr Pre-bend release
| brb Bend release bend
***********************************



************************************

| /  Slide up
| \  Slide down

https://www.youtube.com/watch?v=-TeK76qBL5o 
Suggest correction
Give kudos to tab author, rate the tab!
1 2 3 4 5
comments
print report bad tab
guest
You may want to rate the tab now too:
select rating
Wanna post a correction for this tab? Suggest correction