Oops, an error
Loading. Please wait.

To Live Is To Die Bass Tab

version 1
version 1

Live

Whole song

6,524 views 3 this week
5 commentsread comments
1 2 3 4 5
please rate
add to favorites
launch autoscroll
font size
0
reset
guitar tuner
Tab Pro tools
  • play this tab
  • loop segment
  • change instrument
  • show fretboard
  • metronome
×
Best way to learn
"To Live Is To Die"
Autoscroll
slow
fast
+/-
esc
set tempo
stop
Contributor
Ok I just converted the already existing guitar pro file into a tab file. Hope this is 
Cheers.. And ya sorry, its 5 string bass.. Only the B note is used in that. You can 
it to a B on the A string.

To Live Is To Die
                                                                     Metallica
Jason Newsted


      Q     E   E   S   S  S   S     Q.      E   E   S  S
G||--------14--------------------|----------12------------|
D||------------14----------------|--------------12--------|
A||--12------------12s-14-12s-10-|--10--------------10s-7-|
E||------------------------------|------------------------|
B||------------------------------|------------------------|


  Q    E  E  E  S  S    E   E   E   E  E    E      Q     E   E   S   S  S   S
-------9-------------|---------10--------------|--------14--------------------|
----------9----------|-----10------10----------|------------14----------------|
--7----------7--7s-8-|--8--------------8s--12--|--12------------12s-14-12s-10-|
---------------------|-------------------------|------------------------------|
---------------------|-------------------------|------------------------------|


   Q.      E   E   S  S    Q    E  E  E  S  S    E   E   E   E  E    E
----------12------------|-------9-------------|---------10--------------|
--------------12--------|----------9----------|-----10------10----------|
--10--------------10s-7-|--7----------7--7s-8-|--8--------------8s--12--|
------------------------|---------------------|-------------------------|
------------------------|---------------------|-------------------------|


   E   E   E   E   S   S  S   S     Q.      E   E   S  S    Q    E  E  E  S  S
----------14--------------------|----------12------------|-------9-------------|
------14------14----------------|--------------12--------|----------9----------|
--12--------------12s-14-12s-10-|--10--------------10s-7-|--7----------7--7s-8-|
--------------------------------|------------------------|---------------------|
--------------------------------|------------------------|---------------------|


   E  E  E   E   E  S   S     Q     E   E   S   S  S   S
------------10------------|--------14--------------------|
--10------------10--------|------------14----------------|
---8--8--8----------8s-12-|--12------------12s-14-12s-10-|
--------------------------|------------------------------|
--------------------------|------------------------------|


   Q.      E   E   S  S     H        Q         Q    Q     E  E
----------12------------|--/9--------9\----|--12----9-----------|
--------------12--------|------------------|-------------12--9--|
--10--------------10s-7-|------------------|--------------------|
------------------------|------------------|--------------------|
------------------------|------------------|--------------------|


   Q     E   E   S   S  S   S     Q.      E   E   S  S    Q    E  E  E  S  S
--------14--------------------|----------12------------|-------9-------------|
------------14----------------|--------------12--------|----------9----------|
--12------------12s-14-12s-10-|--10--------------10s-7-|--7----------7--7s-8-|
------------------------------|------------------------|---------------------|
------------------------------|------------------------|---------------------|


  E   E   E   E  E    E      Q     E   E   S   S  S   S
---------10--------------|--------14--------------------|
-----10------10----------|------------14----------------|
--8--------------8s--12--|--12------------12s-14-12s-10-|
-------------------------|------------------------------|
-------------------------|------------------------------|


   Q.      E   E   S  S    Q    E  E  E  S  S    E   E   E   E  E    E
----------12------------|-------9-------------|---------10--------------|
--------------12--------|----------9----------|-----10------10----------|
--10--------------10s-7-|--7----------7--7s-8-|--8--------------8s--12--|
------------------------|---------------------|-------------------------|
------------------------|---------------------|-------------------------|


   E   E   E   E   S   S  S   S     Q.      E   E   S  S    Q    E  E  E  S  S
----------14--------------------|----------12------------|-------9-------------|
------14------14----------------|--------------12--------|----------9----------|
--12--------------12s-14-12s-10-|--10--------------10s-7-|--7----------7--7s-8-|
--------------------------------|------------------------|---------------------|
--------------------------------|------------------------|---------------------|


   E  E  E   E   E  S   S     Q     E   E   S   S  S   S
------------10------------|--------14--------------------|
--10------------10--------|------------14----------------|
---8--8--8----------8s-12-|--12------------12s-14-12s-10-|
--------------------------|------------------------------|
--------------------------|------------------------------|


   Q.      E   E   S  S     H        Q         Q    Q     E  E
----------12------------|--/9--------9\----|--12----9-----------|
--------------12--------|------------------|-------------12--9--|
--10--------------10s-7-|------------------|--------------------|
------------------------|------------------|--------------------|
------------------------|------------------|--------------------|


   E   E   E   E   S   S  S   S     Q.      E   E   S  S    Q    E  E  E  S  S
----------14--------------------|----------12------------|-------9-------------|
------14------14----------------|--------------12--------|----------9----------|
--12--------------12s-14-12s-10-|--10--------------10s-7-|--7----------7--7s-8-|
--------------------------------|------------------------|---------------------|
--------------------------------|------------------------|---------------------|


   E  E  E   E   E  S   S     Q     E   E   S   S  S   S
------------10------------|--------14--------------------|
--10------------10--------|------------14----------------|
---8--8--8----------8s-12-|--12------------12s-14-12s-10-|
--------------------------|------------------------------|
--------------------------|------------------------------|


   Q.      E   E   S  S     H        Q         Q    Q     E  E
----------12------------|--/9--------9\----|--12----9-----------|
--------------12--------|------------------|-------------12--9--|
--10--------------10s-7-|------------------|--------------------|
------------------------|------------------|--------------------|
------------------------|------------------|--------------------|


  Q    E  E  E  E     Q    E  E  E  E     Q    E  E  E  E
-------------------|-------------------|-------------------|
-------------------|-------------------|-------------------|
-------7-----------|-------7-----------|-------7-----------|
--5-------0--3--0--|--5-------0--3--0--|--5-------0--3--0--|
-------------------|-------------------|-------------------|


  E  E  E  E  E  E     E  E  E  E  E  E     Q    E  E  E  E
--------------------|--------------------|-------------------|
--------------------|--------------------|-------------------|
-----5--------------|-----5--------------|-------7-----------|
--3-----3--0--3--0--|--3-----3--0--3--0--|--5-------0--3--0--|
--------------------|--------------------|-------------------|


  Q    E  E  E  E     Q    E  E  E  E     E  E  E  E  E  E
-------------------|-------------------|--------------------|
-------------------|-------------------|--------------------|
-------7-----------|-------7-----------|-----5--------------|
--5-------0--3--0--|--5-------0--3--0--|--3-----3--0--3--0--|
-------------------|-------------------|--------------------|


  E  E  E  E  E  E     Q    E  E  E  E     Q    E  E  E  E
--------------------|-------------------|-------------------|
--------------------|-------4-----------|-------4-----------|
-----5--------------|--2----------0-----|--2----------0-----|
--3-----3--0--3--0--|----------2-----2--|----------2-----2--|
--------------------|-------------------|-------------------|


                                                                ^
  Q    E  E  E  E     E  E  E  E  E  E     E  E  E  E  E  E     H.
-------------------|--------------------|--------------------|---------------|
-------4-----------|-----2--------------|-----2--------------|---------------|
--2----------0-----|--0-----0-----0-----|--0-----0-----0-----|---------------|
----------2-----2--|-----------2-----2--|-----------2-----2--|---------------|
-------------------|--------------------|--------------------|--0------------|


  ^               ^               ^               ^
  H.              H.              H.              H.
---------------|---------------|---------------|---------------|
---------------|---------------|---------------|---------------|
---------------|---------------|---------------|---------------|
---------------|---------------|---------------|---------------|
--0------------|--0------------|--0------------|--0------------|


  Q.     E  Q       H.              H.
-----------------|---------------|---------------||
-----------------|---------------|---------------||
---------1--2----|---------------|---------------||
-----------------|--2------------|--L------------||
--L--------------|---------------|---------------||


Duration Legend
---------------
W - whole
H - half
Q - quarter
E - 8th
S - 16th
T - 32nd
X - 64th
. - note dotted
|-n-|  - n-tuplets


Tablature Legend
----------------
L - tied note
x - dead note
g - grace note
(n) - ghost note
> - accentuded note
NH - natural harmonic
AH - artificial harmonic
TH - tapped harmonic
SH - semi harmonic
PH - pitch harmonic
h - hammer on
p - pull off
b - bend
br - bendRelease
pb - preBend
pbr - preBendRelease
brb - bendReleaseBend
\n/ - tremolo bar dip
\n - tremolo bar dive
-/n - tremolo bar Release up
/n\ - tremolo bar inverted dip
/n - tremolo bar return
-\n - tremolo bar Release down
S - shift slide
s - legato slide
/ -  slide into from below or out of upwards
\ -  slide into from above or out of downwards
~ - vibrato
W - wide vibrato
tr - trill
TP - tremolo picking
T - tapping
S - slap
P - pop
< - fade in
^ - brush up
v - brush down
comments
We did not receive enough feedback on this tab! Please rate:
print report bad tab
1 2 3 4 5
5 comments total. Showing first comments.
0 reply
AngelWolf wrote on March 30 2009, 07:03 am

THANKS SO MUCH.. 5stars.. even if its not right all the way through though im sure it will be... finallly some one uploaded this.. thanks man. real grateful

0 reply
RAH7747 wrote on March 30 2009, 01:29 pm

Well parts of what i had written on top have been cut for some unknown reason. But you guys get the point, don't ya...

0 reply
RAH7747 wrote on March 30 2009, 01:31 pm

And you are welcome. This was my first attempt. And albeit, it wasn't my own effort, but it was my first contribution on ug and i'm quite happy it satisfied your need. Cheers..

I want to post or [tab]
guest
You may want to rate the tab now too:
select rating
Please do not post tabs as comments. Select "correction" instead!