Oops, an error
Loading. Please wait.

To Live Is To Die Bass Tab

version 2
version 2

Live

Whole song

26,263 views 63 this week
3 commentsread comments
1 2 3 4 5
excellent!
x 10
add to favorites
launch autoscroll
font size
0
reset
guitar tuner
Autoscroll
slow
fast
+/-
esc
set tempo
stop
Help us to improve Ultimate-Guitar.com Take our survey!
×
Author
-------------------------------------------------------------------------------
	TO LIVE IS TO DIE (Live Shit: Binge & Purge) - Metallica
-------------------------------------------------------------------------------

This is To Live Is To Die from Live Shit: Binge & Purge. I tabbed it out for my bass 
friend to learn for a gig. And I thought I would share it with you all! Sorry if it is 
this is my first tab. Enjoy!

Tabbed By : Samson1996
e-mail: Samson3051996@Hotmail.com

Tuning:E Standard

G|---14-------14----------12------------------9-----------------------|
D|------14-------------------12-----------------9-------10-10---10----|
A|12-------12----12\10-10-------10-10\7---7-7-----7-7-8-------8----10-|
E|--------------------------------------------------------------------|

G|-----14---------------------------------------------------------------|
D|--------14---------------12----12--------9--------12---------12-------|
A|12---------12\14-12-10------10----10-7-----7-7/10----10---10----10/12-|
E|----------------------------------------------------------------------|

G|--------------------------------12--------9----------------------|
D|---14----14---------------12----------------9-------10-10--------|
A|12----12----12/14-12-10------10----10-7-------7-7-8-------8-8-10-|
E|-----------------------------------------------------------------|

G|-----14------------------12---------------------------------12----12----------|
D|--------14------------------12----12-12/14---14-14-14-12h14----14----14-12----|
A|12---------12/14-12-10---------10------------------------------------------14-|
E|------------------------------------------------------------------------------|

 1st Guitar comes in:

G|-----14---------------12-------------9-----------10---------|
D|--------14---------------12------------9------------10------|
A|12---------12-14-10---------10\7-7-------7-7-8---------8-10-|
E|------------------------------------------------------------|

G|-----14---------------12-------------------------------------------|
D|--------14---------------12----------9--------12-------12----------|
A|12---------14-12-10---------10\7-7-----7-7/10----10-10----10-10/12-|
E|-------------------------------------------------------------------|

 2nd Guitar comes in:

G|------------------------------------------9-------------------------|
D|---14----14---------------12----------------9-------10---10---------|
A|12----12----12/14-12-10------10-10/7-7--------7-7-8----8----8/10-10-|
E|--------------------------------------------------------------------|

G|---------14------------------12------------9---------------------------|
D|------------14------------------12-----------9------12--------12-------|
A|10/12----------12/14-12-10---------10\7-7------7/10----10--10----10-10-|
E|-----------------------------------------------------------------------|

G|------14-------------------12------------------9---------10-----------|
D|---14----14----------------------------------------9----------10------|
A|12----------12/14-12-10-------10-10-12p10-7------7---7-8----8----8----|
E|----------------------------------------------------------------------|

G|-----14------------------12--------------------------------12----12----------|
D|--------14------------------12------12/14---14-14-14-12h14----14----14-12----|
A|12---------12/14-12-10---------10-----------------------------------------14-|
E|-----------------------------------------------------------------------------|

G|------------------------------------------------------------|
D|------------------------------------------------------------|
A|----7-----------7-----------7---------5-----------5---------|
E|5-----5-0-3-5-----5-0-3-5-----5-0-2-3---3---0-2-3---3---0-3-|

G|------------------------------------------------------------|
D|------------------------------------------------------5-----|
A|----7-----------7-----------7---------5-----------5---------|
E|5-----5-0-3-5-----5-0-3-5-----5-0-2-3---3---0-2-3---3---0-3-|

G|---------------------------------------------------------------|
D|---------------------------------------------7-----------7-----|
A|--9---9\-------9---9\-------9---9\-------7-----------7---------|
E|7---7----2-5-7---7----2-5-7---7----2-4-5---5---2-4-5---5---5-5-|

Not In Strict Time:

G|----------------------------------------------------------------------|
D|----------------------------------------------------------------------|
A|9-9----------9-9----------9------------9------------9-----------------|
E|7-7----------7-7----------7------------7------------7------------5-7\-|

G|----------------------------------------------------------------|
D|----------------------------------------------------------------|
A|----------------------------------------------------------------|
E|2~--------------------------------------------------------------|

 | /  slide up
 | \  slide down
 | h  hammer-on
 | p  pull-off
 | ~  vibrato
 | +  harmonic
 | x  Mute note
===============================================================================
Suggest correction
comments
print report bad tab
3 comments total.
0 reply
stalker666 10 wrote on January 31 2013, 06:03 am

thanks for your tab...

-1 reply
achiclau 10 wrote on October 30 2014, 01:00 pm

didn't like this contribution

0 reply
saantiiaagoo.0 10 wrote on January 23 2016, 01:02 am

Excelente hermano, gran aporte.

guest
You may want to rate the tab now too:
select rating
Please do not post tabs as comments. Select "correction" instead!