Oops, an error
Loading. Please wait.

To Live Is To Die Tab

version 1
version 1
50,434 views 45 this week
8 commentsread comments
1 2 3 4 5
excellent!
x 18
add to favorites
launch autoscroll
font size
0
reset
how to read this tab
guitar tuner
Tab Pro tools
  • play this tab
  • loop segment
  • change instrument
  • show fretboard
  • metronome
×
Best way to learn
"To Live Is To Die"
Autoscroll
slow
fast
+/-
esc
set tempo
stop
I'm back again
here everything
The song is the key of G#
and D# in the bass and that makes II 2/3 chord
Muzic theory

Solo
e--------------------------------------------------------------
b---16b17-------(16)-------(16)--------------------------------
g---16b18-------(16)-------(16)-------14-16-16-16---16-16---14-
d--------------------------------------------------------------
a--------------------------------------------------------------
e--------------------------------------------------------------

e---------------------------------------------------------------------------
b------------17b19~~----17-15--14-------------------------------------------
g-16-16-14~------------------------16-14----14-16-16b18r16p14------------14-
d----------------------------------------16-------------------16~~----16----
a---------------------------------------------------------------------------
e---------------------------------------------------------------------------
  
e-------------------------------------------------------------------------------
b-------------------------------------------------------------------------------
g-16b18r16p14-------14\16~---------14-16--16b18r16p14----------14---------14-16-
d-------------16~------------14h16--------------------16~---16----16~--16-------
a-------------------------------------------------------------------------------
e-------------------------------------------------------------------------------
  
e------------------------------------------------------------
b-----------------------------------------------------17b19~-
g-16b18r16p14-16-16b18r16p14-16b18r16p14-16b18r16p14---------
d------------------------------------------------------------
a------------------------------------------------------------
e------------------------------------------------------------
  
e-----------------------------------------------------------------
b-17-15-14--------------------------------------------------------
g----------16-14----14-16-16b18r16-14------------------14h16-14~~-
d----------------16------------------------------14h16------------
a------------------------------------------14h16------------------
e-----------------------------------------------------------------
  
e--------------------------------------------------------------------------------
b-----------------------------------------------16b17r16----16b17r16----16b17r16-
g--------------14h16-14~~-----------------14h16-16b18r16-14-16b18r16-14-16b18r16-
d--------14h16----------------------14h16----------------------------------------
a--14h16----------------------14h16----------------------------------------------
e--------------------------------------------------------------------------------
 
e----------------------------------------------------------------------
b----16b17r16-14-16b17r16-14-17b19---17b19~~---------------------------
g-14-16b18r16-14-16b18r16-14-------------------------------------------
d----------------------------------------------------------------------
a----------------------------------------------------12-14-14-12-16-14-
e----------------------------------------------14-14-------------------
  
e-------------------------------------------------------------------------
b-------------------------------------16---------16-16----------16--------
g-------------14-----16-14-14-(16)-16----14-(16)-16-16-14----16----14b15--
d-14----16-14----16------------16------------16-----------16--------------
a----16-------------------------------------------------------------------
e-------------------------------------------------------------------------
  
e--------------------17-------------------------------------------- 
b---------17--------------------17--------------------------------- 
g-16b18------16b18------16b18------16b18---16-15-14---------------- 
d---------------------------------------------------16-15-14------- 
a------------------------------------------------------------16-14-
e------------------------------------------------------------------ 
 
e----------------------
b----------------------
g----------------------
d-16-15-14-------------
a----------16-15-14-12-
e----------------------
then this

  T      T      T       T       T      T      T       T 
e-14p9p6-14p9p6-15p10p7-15p10p7-14p9p6-14p9p6-15p10p7-15p10p7-
b-------------------------------------------------------------
g-------------------------------------------------------------
d-------------------------------------------------------------
a-------------------------------------------------------------
e-------------------------------------------------------------
 
  T      T      T       T       T      T      T       T
e-14p9p6-14p9p6-15p10p7-15p10p7-14p9p6-14p9p6-15p10p7-15p10p7-
b-------------------------------------------------------------
g-------------------------------------------------------------
d-------------------------------------------------------------
a-------------------------------------------------------------
e-------------------------------------------------------------
 
  T      T       T      T       T      T       T      T 
e-14p9p6-15p10p7-14p9p6-15p10p7-14p9p6-15p10p7-14p9p6-15p10p7-
b-------------------------------------------------------------
g-------------------------------------------------------------
d-------------------------------------------------------------
a-------------------------------------------------------------
e-------------------------------------------------------------
 
e-14--15--17--19--20--22--22b24--22b24----22b24--------------
b------------------------------------------------------------
g------------------------------------------------------------
d------------------------------------------------------------
a------------------------------------------------------------
e-----------------------------------------------------------

e------------------------------------R---------R---------R--- 
b------------------------------------E---------E---------E--- 
g------------------------------------P---------P---------P--- 
d-----------5------------------------E---------E---------E--- 
a--7---------------------------------A--5------A---------A--5 
e--------------------7--------8------T---------T--7------T--- 
each note rings  


e--------------------------------------------------------------------------- 
b--------------------------------------------------------------------------- 
g--7h9----9--7\5----5h7p4--2--0h2----4--5--5--4--0--5----5p4----------------
d-------------------------------------------------------------5--5/7---5h7-- 
a--------------------------------------------------------------------------- 
e--------------------------------------------------------------------------- 

e----------------------------------------------------------------------- 
b----------------------------------------------------------------------- 
g--4/5-5-5/7-7-7/9-9-9h10--9---9-10-9h10p9--7\5-5\4---4h5p4------------- 
d---------------------------------------------------5--------5---5h7p5-- 
a----------------------------------------------------------------------- 
e----------------------------------------------------------------------- 

e------------------------------------------------------------------------- 
b-----------------------------------------------------/\------------------ 
g-------------4h5p4-----4h5p4--4--5--7--7/9--7---9--9'  `--7---/\--------- 
d-5h7---7--7---------5---------------------------------------9'  `-7--5/9- 
a-------------------------------------------------------------------------
e------------------------------------------------------------------------- 

use your compression (the feeling thing)
e------------------------------------------------------------------- 
b-----------------12h13p12------12h13--12----12h15p12--12h13p12-----
g-12h14---14--14------------12-----------------------------------12- 
d------------------------------------------------------------------- 
a------------------------------------------------------------------- 
e------------------------------------------------------------------- 

e------------------------------------------ 
b------------13p12-----------15--13--12---- 
g--12----12--------12----12--------------14 
d------------------------------------------
a------------------------------------------
e------------------------------------------
comments
print report bad tab
8 comments total. Showing first comments.
0 reply
IamRandyRhoads wrote on June 6 2004, 12:00 am

thats a hard solo

+2 reply
metallica100 wrote on September 24 2006, 12:14 am

i thought this song would be in F# major and A minor.

0 reply
slash4lyf wrote on October 10 2006, 03:28 am

nice work brother..i could just listen to it and read along with it knowing it's correct 5*

I want to post or [tab]
guest
You may want to rate the tab now too:
select rating
Please do not post tabs as comments. Select "correction" instead!