Oops, an error
Loading. Please wait.

To Live Is To Die Bass Tab

version 2
version 2

Whole song

3,848 views 30 this week
no commentswrite comment
1 2 3 4 5
accurate
x 4
add to favorites
launch autoscroll
font size
0
reset
guitar tuner
Autoscroll
slow
fast
+/-
esc
set tempo
stop
Help us to improve Ultimate-Guitar.com Take our survey!
×
Author
Difficulty
intermediate
-----------------------------------------------------------------------------
                        To Live Is To Die - Metallica
-----------------------------------------------------------------------------
MetallicaDMRTL
Standard Tuning

G:--------------------------------------------------------------------------|
D:--------------------------------------------------------------------------|
A:--------------------------------------------------------------------------|
E:--2---2--X--X--0--2--3---3--X--X--3p2--2---2--X--X--0--2--5--5---5p3--3p2-|
__________

  Riff 2 (start)
G:------------------------------------------------------------|
D:------------------------------------------------------------|
A:------------------------------------------------------------|
E:--2-2-2--3--3-3-2--2-2--5-5-5--2-2-2--3--3-3-2--2-2--5-5-5--|

                                                        Riff 2 (end)
G:-------------------------------------------------------------------|
D:-------------------------------------------------------------------|
A:-------------------------------------------------------------------|
E:--2---3---2---5---2---3---2---5---2-3-2-5-2-3-2-5-2-3-2-5-2h3-2h5--|
__________

  Riff 3

G:----------------------------------------------------------------|
D:----------------------------------------------------------------|
A:-------------3--2--------------------------4--3--2--------------|
E:-2--2--5--2--------5--2------5------2--X-X----------------------|

Riff 1   3x

Riff 2   1x

Riff 1   2x

Riff 2   1x

Riff 1   2x

Riff 3   2x

Riff 1   2x

Riff 2   1x

Riff 1   4x

Riff 2   1x

Riff 1   2x

Then, following that is:

G:-------------------------------------------------------------|
D:-------------------------------------------------------------|
A:-------------------------------------------------------------|
E:--2--2----r----3--3----r----0--0----r----5----------3--------|

G:--------------------------------------------------------------------------|
D:--------------------------------------------------------------------------|
A:---------------------------------------2-----------------------------2----|
E:--5----5--5--0--3----3--3--5--0-----0-----0--1-------3-----5---5--5-----3-|
                                                   (guitar)
                                         (2x)
G:---------------------------------------------|---------------|
D:---------------------------------------------|--|=========|--|
A:----5--------------------2-------------------|---------------|
E:-------3--5--0-----0--0-----3-----(3)--------|---------------|

                         (Optional)           
               With the violins before coming in
                       (Volume Swells)

G:-17--19----------17--19------16-|
D:---------17--19----------17-----|
A:--------------------------------|
E:--------------------------------|

G:--------------------------------------------------------------|
D:----7----7------7h9p7--5--------5-7-5--2----2--2--5--3----5---|
A:--------------------------------------------------------------|
E:--------------------------------------------------------------|

G:---------------------------------------------------------------------|
D:---7-----7---7h9p7-----5------5--5h7p5----2----2---5--2----5-----5/--|
A:---------------------------------------------------------------------|
E:---------------------------------------------------------------------|

G:--------------4h5---4-----------------------------------------------|
D:---/7------7-----------5-----5---7---5--2----2--2---5--3-------5----|
A:--------------------------------------------------------------------|
E:--------------------------------------------------------------------|

G:--------------------------------------------------------------------|
D:---7----7h9p7-----5-----5---7---5--2-----2---5--2---5------5--2\----|
A:--------------------------------------------------------------------|
E:--------------------------------------------------------------------|

G:---------------------------------------------------------------|
D:---------------------------------------------------------------|
A:-----------2---------------------------------------------------|
E:--5-----5-----5--3-----3--5--3--0----0--0--3--1-------3--------|

G:--------------------------------------------------------------|
D:--------------------------------------------------------------|
A:--------------------------------------------------2-----------|
E:--5----5--5h7p5--3-----3-----3--3h5p3--0----0--0-----3----3---|

G:------------------------------------------------------|
D:------------------------------------------------------|
A:------------------------------------------------------|
E:--5----5--5h7p5--3----3--3h5p3--0----0-0-0-1----3-----|

G:------------------------------------------------------------|
D:------------------------------------------------------------|
A:------------------------------------------------------------|
E:--5----5--7--5--3-----3--5--3--0-----0--3--0--3----3---3-\--|

G:--------------------------------------------------------------------------|
D:*-------------------------------------------------------------------------|
A:*----------------------------------------2---------------------------2----|
E:----5----5--5--0--3-----3--3--5--0----0-----0--1----3----5-----5--5-----3-|

G:------------------------------------------|  
D:-----------------------------------------*|  
A:----5--------------------2---------------*|  
E:-------3--5--0-----0--0-----3-------------|  

G:------------------------------------------------------------------|
D:*----------------------------------------------------------------*|
A:*----------------------------------------------------------------*|
E:---5---5-5-0-3-5---5-5-0-3-5---5-5-0-2-3---3-3-3-0-3---3-3-3-0----|

G:--------------------------------------------------------------------------|
D:--------------------------------------------------------------------------|
A:--2---2-2-2--2-2--------2---2-2-2--2-2--------2---2-2-2--2-2--------------|
E:------------------2--5------------------2--5------------------2--4--5--5-5|

G:--------------------------------------------------------------------------|
D:--------------------------------------------------------------------------|
A:----------------------------------2--2--------------2--2------------2-----|
E:-5--5-5-5--2--5--5-5-5--5-5-5--2------------------------------------------|

G:----------------------------------------------------------|
D:----------------------------------------------------------|
A:-----------2----------------2------------(2)--------------
E:----------------------------------------------------------|

Now Cliff starts the spoken part: 

Riff 1 x6

(spoken):  When a man lies, he murders some part of the
           world.  These are the pale deaths which men miscall their
           lives.  All this i cannot bear to witness any longer.
           Cannot the kingdome of salvation take me home?

Riff 3 x2

G:------------------------------------------------------------------------|
D:------------------------------------------------------------------------|
A:------------------------------------------------------------------------|
E:--2---2---2----0--2--3---3---3---3p2--2---2---2---0--2--5--5---5p3--3p2-|

G:--------------------------------------|
D:--------------------------------------|
A:--------------------------------------|
E:----2--2---------3--3------0------0---|

Riff 1 x2

G:---------------------|
D:---------------------|
A:---------------------|
E:---2---2-----2---2---|


                             

                              MetallicaDMRTL

                              \m/Metallica\m/
Suggest correction
comments
print report bad tab
guest
You may want to rate the tab now too:
select rating
Wanna post a correction for this tab? Suggest correction