Oops, an error
Loading. Please wait.

To Live Is To Die Tab

version 2
version 2
53,575 views 87 this week
7 commentsread comments
1 2 3 4 5
accurate
x 35
add to favorites
launch autoscroll
font size
0
reset
how to read this tab
guitar tuner
Autoscroll
slow
fast
+/-
esc
set tempo
stop
Help us to improve Ultimate-Guitar.com Take our survey!
×
The correct version
Sounds great
No solos yet!

1a)
e------7-7-12-12-12--7-7-8-7-10-7h8p7-7-7-----------7
B--8-8---------------0-0---0----------7-7-7-------7-7
G--9-9-7-7-9--9--9---0-0---0----------7-7---7---7---7
D---------------------------------------------9------
A----------------------------------------------------
E----------------------------------------------------

1b) continued
e--10-10--------------------------
B--8--10-7-8-7h8p7----------------
G--------7-7-------7-9/11\9-------
D---------------------------------
A-----------------------------/9-7
E---------------------------0-----
clean


2)
G-------------------------
D--x-x-x-x-x-x-x-x-4-4-4-4
A--x-x-x-x-x-x-x-x-4-4-4-4
E--x-x-x-x-x-x-x-x-2-2-2-2
drums and heavy guitar enter
(0:56)


3)
G-----------------------------------------------------------------
D--4--4-------2-4-5--5-------5-/4--4-------2-4-7--7--7-/5--5-/4--4
A--4--4-------2-4-5--5-------5-/4--4-------2-4-7--7--7-/5--5-/4--4
E--2--2--2-2--0-2-3--3--3-3--3-/2--2--2-2--0-2-5--5--5-/3--3-/2--2
        pm..            ...           ...
(1:07)


4a)
G--------------------------------------------------------
D--4-4-4--5-5-5--4-4-4--7-7-7--4-4-4--5-5-5--4-4-4--7-7-7
A--4-4-4--5-5-5--4-4-4--7-7-7--4-4-4--5-5-5--4-4-4--7-7-7
E--2-2-2--3-3-3--2-2-2--5-5-5--2-2-2--3-3-3--2-2-2--5-5-5
  pm.....................................................

4b) continued
G-----------------------------------------------------
D----5----7----5----7---------------------------------
A----5----7----5----7---------------------------------
E--2-3--2-5--2-3--2-5--2-3-2-5-2-3-2-5-2-3-2-5-2-3-2-5
  pm    .    .    .    ...............................
(1:35)


5)
G--11-/6--4/6/7\4--4/6\3--3-3-2
D------------------------------
A--9--/4--2/4/5\2--2/4\1--1-1-0
E------------------------------
played over riff 3)
(2:13)


6)
G------2---5-4--2------------2---------6-5-4
D--4-4-2-4-5-4--2--4---4-4-4-2--4--4-4-6-5-4
A--4-4-0-4-3-2--0--4---4-4-4-0--4--4-4-4-3-2 repeats
E--2-2---2---------2---2-2-2----2--2-2------
  pm..   .             .....       ...
(2:32)


7) ^V      ^V      ^V
e------------------------------------------
B--5-------6-------5-----------------------
G-----6-------7-------6--------------------
D-------4~~-----5~~-----4~7~~7-6-6-6--4-4-4
A------------------------------------------
E------------------------------------------
also played over riff 3)
(2:46)


8a) James
G-----------------------------------------
D--4-4-------5-5-------2-2-------7-------5
A--4-4-------5-5-------2-2-------7-------5
E--2-2--2-2--3-3--3-3--0-0--0-0--5-------3


8b) Kirk
   ^ V       ^ V       ^ V       ^ V 
e-----------------------------------------
B--5---------6---------3---------8--------
G-----6---------7---------4---------9-----
D-------4~~-------5~~-------2~~-------7~~5
A-----------------------------------------
E-----------------------------------------
(4:25)


9a) James
G--2----------------------------2--------------------
D--2---------5------2------3----2-----5------2------3
A--0---------5------2------3----0-----5------2------3
E------------3------0------1--3-------3------0------1

9b) Kirk
e----------------------------------------------------
B----------------------------------------------------
G--4h5~4h5p4-4~~--------------4h5~5h7-7~~4--------4--
D---------------7-5-5~~5-5h7~~-------------5-5~~5---5
A----------------------------------------------------
E----------------------------------------------------
(4:29)

9c) Harmony guitar
e-----------------------------------3-3~~------------
B--3h5~3h5p3-3~~--------------3h5~5------5-3------5--
G---------------5-4-4~~4-4h5~~---------------4~~4---4
D----------------------------------------------------
A----------------------------------------------------
E----------------------------------------------------
played along with 9b) (4:43)


10)
e---------------------------------------------------------------
B--0h1---0h1p0-0--------------------1---3-3-3---------0----3-0h1
G------2---------2-0-0---0-0h2--------2-------2-0---0---0-------
D----------------------2-------0------------------2-------------
A--0-----------------------------0--0------------------------0--
E--------------3---3-0---0-1--------------3-----0---------------
clean (4:56)


11a) James
G--2------------2----------2------------------------2
D--2--------2-5-2------2-5-2----2-3-5------5--5-----2
A--0--------2-5-0------2-5-0----2-3-5------5--5-----0
E-----------0-3--------0-3------0-1-3------3--3------

11b) Kirk
e----------------------------------------------------
B------------------------5------5-5-3~~3-3-----3~~3-5
G--5------5---5------5-----5~~5------------4-5-------  repeat
D----7~~7---7---7~~7---7-----------------------------
A----------------------------------------------------
E----------------------------------------------------

11c) lower harmony
e----------------------------------------------------
B----------------------------------------------------
G------------------------5------5-5-4~~4-4-----4~~4-5  repeat
D--7------7---7------7-----7~~7------------5-7-------
A----7~~7---7---7~~7---7-----------------------------
E----------------------------------------------------
(6:47)


12a) James
G--4----------2-4--------2-4--------2------2--2-----4
D--4--------4-2-4------4-2-4----2-5-2------2--2-----4
A--2--------4-0-2------4-0-2----2-5-0------0--0-----2
E-----------2----------2--------0-3------------------

12b) Kirk
e----------------------------------------------------
B------------------------7------7-7-5~~5-5-----5~~5-7
G--7------7---7------7-----7~~7------------6-7-------  repeat
D----9~~9---9---9~~9---9-----------------------------
A----------------------------------------------------
E----------------------------------------------------

12c) lower harmony
e----------------------------------------------------
B----------------------------------------------------
G------------------------7------7-7-6~~6-6-----6~~6-7  repeat
D--9------9---9------9-----9~~9------------7-9-------
A----9~~9---9---9~~9---9-----------------------------
E----------------------------------------------------
(7:03)


13a) James
G--4-4--------4-4--------4-4        4----------------------------
D--4-4--------4-4--------4-4 repeat 4----------------------------
A--2-2--------2-2--------2-2 then   2----------------------------
E---------------------------        -----------------------------

13b) Kirk
e------------------------7--        9-----------------9--9--9--10
B--7------7---7------7-----7        11---------------------------
G----7~~7---7---7~~7---7---7 repeat 11--11-11-11-12~~~-----------
D---------------------------        11---------------------------
A--------------------------- then   9----------------------------
E---------------------------        -----------------------------

13c) lower harmony
e---------------------------        9----------------------------
B------------------------7--        11----------------11-11-11-12
G--7------7---7------7-----9 repeat 11---------------------------
D----9~~9---9---9~~9---9---9        11--11-11-11-12~~~-----------
A--------------------------- then   9----------------------------
E---------------------------        -----------------------------
(7:10)
Suggest correction
What's this?
You can suggest a correction to this tab. Community and Mods will review your correction and vote to approve or reject it.
comments
print report bad tab
7 comments total. Showing first comments.
0 reply
Queen of Reich 47 wrote on August 21 2006, 11:47 am

awsome tab dude this is really accurate... props

+2 reply
c0ld_3mphasis05 758 wrote on October 6 2006, 05:49 pm

The intro sounds great, exept you left out a few notes,

copy and paste this into notepad (I put stars by the notes i added, and x's where i took notes out)

1a)
e-----7-7-12-12-12--7-7-8-7-10-7h8p7p0*-7---7-----------7
B-8-8---------------0-x*--0-------------7---7--7-----7--7
G-9-9-7-7-9--9--9---0-x*--0-------------7---7---7--7----7
D-----------------------------------------9*-----9-------
A--------------------------------------------------------
E--------------------------------------------------------

1b) continued
e-10-10-10--------------------------------
B-8--10----7-8-7h8p7----------------------
G----11----7-x*------9*-7s9*-11*-9*-------
D----12--------------0*-------------------
A------------------------------------/9-7-
E----------------------------------0------

0 reply
Metallica-rlz 12 wrote on January 27 2008, 01:16 pm

Exelent work dude

guest
You may want to rate the tab now too:
select rating
Please do not post tabs as comments. Select "correction" instead!