Oops, an error
Loading. Please wait.

To Live Is To Die Tab

version 3
version 3
55,944 views 66 this week
3 commentsread comments
1 2 3 4 5
x 6
add to favorites
launch autoscroll
font size
0
reset
how to read this tab
guitar tuner
Autoscroll
slow
fast
+/-
esc
set tempo
stop
Help us to improve Ultimate-Guitar.com Take our survey!
×
Author
F#5
2 4 4 x x x  G5
3 5 5 x x x  E5
0 2 2 x x x  A
x 0 2 2 2 x  
G5(type 2)
3 x 0 0 3 x  Am
5 7 7 5 5 x  G
3 5 5 4 3 3  Em
0 2 2 0 0 0  
F
1 3 3 2 1 1  A5
5 7 7 x x x  B5
x 2 4 4 x x  

Gtr I (E A D G B E) - 'James Hetfield - Acoustic (2 Gtrs arr. for 1)'
Gtr II, III (E A D G B E) - 'James Hetfield - Rhythm w/dist'
Gtr IV, V (E A D G B E) - 'Kirk Hammett - Lead w/dist'

[Intro]
  Q=56
 4/4
  Gtr I
            <
  h    e e  e a  a e     e  e  e s s s s s s  e.    s
e|------8-7-10-7h10p7-||--7----^7-------------^7----10-|
B|------0-5--0------7-||o-7----^7-7-------7---^7-----8-|
G|------0----0--------||--7--7-^7---7---7-----^7-------|
D|--------------------||--9--9----9-----------^9-------|
A|--------------------||o-9----------------------------|
E|--------------------||--7-----------7-----7-(7)-7----|
  h    q    e      e     q.      e   e   s s +e  e
                      |-rhy fig 1

                        |-3-|
    e    e  e  e    s s t t t s s  s   e
e|-10------10-------------------0--0-<12>--|
B|-10---------------7-8-7h8p7---0--0---0---|
G|-11---------11----7-7-7-----9-9-11---9---|
D|-12---12---------------------------------|
A|-12------------12------------------------|
E|-10--------------------------------------|
   Q..           S H


   E  E E E E E E   E    E  E  E  S  S E E  E a  a E
e|------------7-7-/12-|-12----12-------8-7-10-7h10p7--||
B|--------8-8---------|-12-------12----0-5--0------7-o||
G|--------9-9-7-7--/9-|-12--------9-16-0----0---------|| end Rhy Fig 1
D|--------------------|-14-14-----9-14----------------||
A|---/9-7-------------|-14-------10------------------o||
E|-0------------------|--0--0-------------------------||
  W                     E  Q     E    Q    E      E


   E  E  E S S S S S S  E.    S
e|-7----^7-------------^7----10-|
B|-7----^7-7-------7---^7-----8-|
G|-7--7-^7---7---7-----^7-------|
D|-9--9----9-----------^9-------|
A|-9----------------------------|
E|-7-----------7-----7-(7)-7----|
  Q.      E   E   S S +E  E


                                                     Q=100
                                                     Gtrs II, III
                        |-3-|
    E    E  E  E    S S T T T S S  S   E    W            Q  Q   E E E E
e|-10------10-------------------0--0-<12>-|----------||------------------|
B|-10---------------7-8-7h8p7---0--0---0--|----------||o-2--2\--x-x------|
G|-11---------11----7-7-7-----9-9-11---9--|----------||--3--3\--x-x------|
D|-12---12--------------------------------|----------||--4--4\--x-x-2-4--|
A|-12------------12-----------------------|----------||o-4--4\--x-x-2-4--|
E|-10-------------------------------------|----------||--2--2\------0-2--|
   Q..           S H                                 |-Rhy Fig 2


   Q  Q  E E E E   Q  Q   E E E E   Q  E E E E E E  3x
e|---------------|----------------|-----------------||
B|-3--3--x-x-3s2-|-2--2\--x-x-----|-5--5---5s3-3s2-o||
G|-4--4--x-x-4s3-|-3--3\--x-x-----|-6--6-x-6s4-4s3--||
D|-5--5--x-x-5s4-|-4--4\--x-x-2-4-|-7--7-x-7s5-5s4--|| end Rhy Fig 2
A|-5--5--x-x-5s4-|-4--4\--x-x-2-4-|-7--7---7s5-5s4-o||
E|-3--3------3s2-|-2--2\------0-2-|-5--5---5s3-3s2--||


     PM--------------------------|   PM  PM  PM
     E S S E S S E S S E S S     E E E E E E E E
e||---------------------------||-----------------|
B||o-------------------------o||-----------------|
G||---------------------------||-----------------|
D||---------------------------||-----------------|
A||o-4-4-4-5-5-5-4-4-4-7-7-7-o||-4-5-4-7-4-5-4-7-|
E||--2-2-2-3-3-3-2-2-2-5-5-5--||-2-3-2-5-2-3-2-5-|
 |-Rhy Fig 3

  PM----------------------------|
  S S S S S S S S S S S S S S S S
|----------------------------------||
|----------------------------------||
|----------------------------------|| end Rhy Fig 3
|----------------------------------||
|----------------------------------||
|-2-3-2-5-2-3-2-5-2-3-2-5-2h3-2h3--||


    Rhy Fig 2 x2
    Rhy Fig 3

   $
     w/Rhy Fig 2
     Gtr IV
      Q   H       E E   Q   H      E E   Q   H       E E   W
e||-------------------|----------------|-----------------|-----------------||
B||o------------------|----------------|-----------------|----------------o||
G||--11\--6-------4-6-|-7\--4------4-6-|-6\--3-------3-3-|-2---------------||
D||-------------------|----------------|-----------------|-----------------||
A||o--9\--4-------2-4-|-5\--2------2-4-|-4\--1-------1-1-|-0--------------o||
E||-------------------|----------------|-----------------|-----------------||


   Gtrs II, III
   PM|   PM            PM
   |3| |3| |3|  |3-|                   |3| |3|
   Q E Q E Q E +Q  E   q  Q  H      q  Q E Q E Q
e|-------------------|------------|---------------|
B|-------------------|------------|---------------|
G|-------------------|-------2----|---------------|
D|-----2---5-4-(4)-2-|-------2----|----x-x-6-5-4--|
A|-4-4-0-4-3-2-(2)-0-|-4-----0----|-4--x-x-4-3-2--|
E|-2-2---2-----------|-2----------|-2--x-x--------|


  PM|   PM
  |3| |3| |3|  |3-|      |-3-|           |3| |3|
  Q E Q E Q E +Q  E   q  E E E H      q  Q E Q E Q      To Coda
|-------------------|---------------|---------------||
|-------------------|---------------|---------------||
|-------------------|----------2----|---------------||
|-----2---5-4-(4)-2-|----x-x-x-2----|----x-x-6-5-4--||
|-4-4-0-4-3-2-(2)-0-|-4--x-x-x-0----|-4--x-x-4-3-2--||
|-2-2---2-----------|-2--x-x-x------|-2--x-x--------||


 w/Rhy Fig 2
     Gtr IV
                 ~                       ~
     E E   +E  E H         +E  E   +E  E H
e||----------------------|-----------------------|
B||o---5b7r(5)-2---------|-----6b8r(6)-3---------|
G||----------------------|-----------------------|
D||--------------4-------|-(4)-----------5-------|
A||o---------------------|-----------------------|
E||----------------------|-----------------------|


                ~         ~
   a E   Q    E Q   E E   H      S S S S S S S S
e|----------------------|---------------------------||
B|---5b7r5--------------|--------------------------o||
G|-x----------6-------2-|-2------2h4p2s1-1h2p1------||
D|--------------4---4---|----------------------4----||
A|----------------------|--------------------------o||
E|----------------------|---------------------------||


Rhy Fig 3


 Guitar Solo
w/Rhy Fig 2 x4
  Gtr V
                                           |-3--|
  E  Q         +E   +H           +H       +E    S  S  T  T  +T  T  S T  S.
|-----------------------------|--------------------------------------------|
|---16b17=====(16)-(16)-------|-(16)-----(16)r-----------------------------|
|---16b18=====(16)-(16)-------|-(16)-----(16)r-14-16-16-16-(16)16-16-x-14--|
|-----------------------------|--------------------------------------------|
|-----------------------------|--------------------------------------------|
|-----------------------------|--------------------------------------------|



          ~~            ~~~~~
    S  S  Q     E      +Q.       S  S
e|------------------------------------|
B|-------------17b19==(17)r-----17-15-|
G|-16-16-14---------------------------|
D|------------------------------------|
A|------------------------------------|
E|------------------------------------|



                                    ~~~
    S  S  S  S  S  S  T     +T   S  Q.    S  T  T
e|------------------------------------------------|
B|-14---------------------------------------------|
G|----16-14----14-16-16b18r(16)p14-------------14-|
D|----------16---------------------16-------16----|
A|------------------------------------------------|
E|------------------------------------------------|



                 ~~                                        ~~         ~~
   |----3-----|                              |----3-----|
   S     +S   S  Q     E  Q    S  S  S  S    S     +S   S  Q    S  S  Q    S  S  e
|-----------------------------------------|------------------------------------------|
|-----------------------------------------|------------------------------------------|
|-16b18r(16)p14-------14s11---------14-16-|-16b18r(16)p14---------14---------14-16---|
|---------------16------------14h16-------|---------------16---16----16---16---------|
|-----------------------------------------|------------------------------------------|
|-----------------------------------------|------------------------------------------|



                                                                        ~~~~~
    S     +T   T  S  S     +T   T  S  S      +T   T  S  S      +T   S.  Q
e|-----------------------------------------------------------------------------|
B|---------------------------------------------------------------------17b19---|
G|-16b18r(16)p14-16-16b18r(16)p14-16-16pb18r(16)p14-16-16pb18r(16)p14----------|
D|-----------------------------------------------------------------------------|
A|-----------------------------------------------------------------------------|
E|-----------------------------------------------------------------------------|



                                                                         ~~
                           |----3-----|
   S  S  S  S  S  S  S  S  S     +S   S  +Q    E   E  S  S  S   S  S  S  H
|------------------------------------------------|---------------------------------|
|-17-15-14---------------------------------------|---------------------------------|
|----------16-14----14-16-16b18r(16)p14-(14)-----|----------------14h16-14---------|
|----------------16------------------------------|---------14h=16------------------|
|------------------------------------------------|---14h16-------------------------|
|------------------------------------------------|---------------------------------|



                        ~~
   E  S  S  S  S  S  S  H         E  S  S  S   S  S  S  S     +S   S  S     +S   S  S     +S
e|------------------------------|-------------------------------------------------------------|
B|------------------------------|----------------------16b17r(16)----16b17r(16)----16b17r(16)-|
G|---------------14h16-14-------|----------------14h16-16b18r(16)-14-16b18r(16)-14-16b18r(16)-|
D|---------14h16----------------|---------14h=16----------------------------------------------|
A|---14h16----------------------|---14h16-----------------------------------------------------|
E|------------------------------|-------------------------------------------------------------|



                                                ~~~~~
    S  S     +S   S  S     +S   S  S      +E    Q.
e|-------------------------------------------------------|
B|----16b17r(16)----16b17r(16)-14-17b19==(17)r-17b19-----|
G|-14-16b18r(16)-14-16b18r(16)-14------------------------|
D|-------------------------------------------------------|
A|-------------------------------------------------------|
E|-------------------------------------------------------|



      PM-----------------------------------------
   E  S  S  S   S  S  S  S  S  S  S  S  S  S  S
e|----------------------------------------------|
B|----------------------------------------------|
G|----------------------------------------16----|
D|----------------------------14----16-14----14-|
A|---------12--14-14-12-16-14----16-------------|
E|---14-14--------------------------------------|



 ----------|
   S  S  S   S   S  S  S   S   S  S  S  S  S  S  S.       +T
|--------------------------------------------------------------|
|------------------16---------16-16----------16----------------|
|-16-14-14-(16)-16----14-(16)-16-16-14----16----14b15.5==(14)r-|
|-----------16------------16-----------16----------------------|
|--------------------------------------------------------------|
|--------------------------------------------------------------|


    E.     +S    S   E      +S    S  E        +S    S  E        +S
e|-------------------------------17---------------------------------|
B|--------------17---------------------------------17---------------|
G|-16b18==(16)r-----16b18==(16)r----16b18====(16)r----16pb18r==(16)-|
D|------------------------------------------------------------------|
A|------------------------------------------------------------------|
E|------------------------------------------------------------------|



    S  S  S  S  S  S  S  S  S  S  S  S  S  S  E
e|----------------------------------------------|
B|----------------------------------------------|
G|-16-15-14-------------------------------------|
D|----------16-15-14-------16-15-14-------------|
A|-------------------16-14----------16-15-14-12-|
E|----------------------------------------------|


w/Rhy Fig 3
   T      T        T       T         T      T        T       T
   |-3-|  |--3--|  |-3--|  |--3---|  |-3-|  |--3--|  |-3--|  |--3---|
   S S S  S S   S  S  S S  S  S   S  S S S  S S   S  S  S S  S  S   S
|-14p9p6-14p9p==6-15p10p7-15p10p==7-14p9p6-14p9p==6-15p10p7-15p10p==7-|
|---------------------------------------------------------------------|
|---------------------------------------------------------------------|
|---------------------------------------------------------------------|
|---------------------------------------------------------------------|
|---------------------------------------------------------------------|


   T      T        T       T         T      T        T       T
   |-3-|  |--3--|  |-3--|  |--3---|  |-3-|  |--3--|  |-3--|  |--3---|
   S S S  S S   S  S  S S  S  S   S  S S S  S S   S  S  S S  S  S   S
|-14p9p6-14p9p==6-15p10p7-15p10p==7-14p9p6-14p9p==6-15p10p7-15p10p==7--|
|----------------------------------------------------------------------|
|----------------------------------------------------------------------|
|----------------------------------------------------------------------|
|----------------------------------------------------------------------|
|----------------------------------------------------------------------|



   T      T       T      T       T      T       T      T
   |-3-|  |-3--|  |-3-|  |-3--|  |-3-|  |-3--|  |-3-|  |-3--|
   S S S  S  S S  S S S  S  S S  S S S  S  S S  S S S  S  S S
|-14p9p6-15p10p7-14p9p6-15p10p7-14p9p6-15p10p7-14p9p6-15p10p7-|
|-------------------------------------------------------------|
|-------------------------------------------------------------|
|-------------------------------------------------------------|
|-------------------------------------------------------------|
|-------------------------------------------------------------|


    TP   TP   TP   TP   TP   TP
    E    E    E    E    E    E    E       E
e|-14---15---17---19---20---22---22b24---22b24-----||
B|-------------------------------------------------||
G|-------------------------------------------------||
D|-------------------------------------------------||
A|-------------------------------------------------||
E|-------------------------------------------------||


 Guitar Solo
w/Rhy Fig 2 x2
        Gtr IV
                                             ~
                                                   |-3-|
   E     E    H.                E  E   +E  E Q   a S S S E
e|-22b24----------------------|-----------------------------|
B|--------5b7r(5)-2-----------|-----6b8r(6)-3---------------|
G|----------------------------|-----------------------------|
D|------------------4-4-4p2---|---------------5---4h5p4-2---|
A|--------------------------4-|-(5)-----------------------4-|
E|----------------------------|-----------------------------|
   E     E   +E  E E E S S E


         ~~~               ~~~~~
   E    +Q     E E E E E   Q  Q   S S S S S S S S
e|-----------------------|--------------------------|
B|-5pb7r(5)----2---------|--------------------------|
G|---------------------2-|-2--2---2h4p2s1-1h2p1-----|
D|---------------4-4-4---|----------------------4---|
A|-----------------------|--------------------------|
E|-----------------------|--------------------------|



                                             |-3-|
   E E    +E  E E E S S E   E E    +E  E E E S S S E
e|------------------------|--------------------------|
B|---5pb7r(5)-2-----------|---6pb8r(6)-3-------------|
G|------------------------|--------------------------|
D|--------------4-4-4p2---|--------------5-5-5p4-2---|
A|----------------------4-|------------------------4-|
E|------------------------|--------------------------|


        ~~~               ~~~~~
   E   +Q     E E E E E   Q  Q   S S S S S S S S
e|----------------------|-------------------------||
B|-5b7r(5)----2---------|-------------------------||
G|--------------------2-|-2--2---2h4p2s1-1h2p1----||
D|--------------4-4-4---|----------------------4--||
A|----------------------|-------------------------||
E|----------------------|-------------------------||


 3/4
  Gtrs II, III
  F#5               G5
  Q      Q    E E   Q      Q    E E
  |      |    | |   |      |    | |
  /      /    x x   /      /    x x

   Gtr IV
               ~                 ~
   E E   +E  E Q     E E   +E  E Q
e|-----------------|-----------------|
B|---5b7r(5)-2-----|---6b8r(6)p3-----|
G|-----------------|-----------------|
D|-------------4---|-------------5---|
A|-----------------|-----------------|
E|-----------------|-----------------|


  E5                A                    G
  Q      Q    E E   H.                   H.
  |      |    | |   |                    |
  /      /    x x   /                    /

               ~
   E E   +E  E Q     E  E   +E  E E.T T   H.
e|-----------------|----3b5r(3)p0-------|-------||
B|---3b5r(3)p0-----|--------------------|-------||
G|-----------------|--------------------|-------||
D|-------------2---|--------------2h4p2p|=0-----||
A|-----------------|--------------------|-------||
E|-----------------|--------------------|-------||

|-Rhy Fig 4 (Rhythm Slashes)
  Am          E       G        E     Em       E   F    F G
  H        E  E       H      E E     H    E   E   Q.   E Q
  |        |  |       |      | |     |    |   |   |    | |
  /        /  o       /      / o     /    /   o   /    o o
    ~~                ~~                          ~~
  E Q.   a E.   T T   Q.   E E E   a H    S S E   H.
|-------------------|------------|--------------|-----------|
|-------------------|------------|--------------|-----------|
|-4h5----4h5----4h5p|=4----------|--------------|-----------|
|-------------------|------7-5---|-7s5----5-5-5-|-7---------|
|-------------------|------------|--------------|-----------|
|-------------------|------------|--------------|-----------|


                                           end Rhy Fig 4-|
  Am       C   G      D C   Em         D   G 
  H      E E   H      E E   Q.   E   E E   Q.   S S Q
  |      | |   |      | |   |    |   | |   |    | | |
  /      / o   /      o o   /    /   / o   /    / / /

       ~        ~~
   E E Q  E E   Q.   E E E   Q.   S S E E   Q.   S S E E
e|------------|------------|--------------|--------------|
B|------------|------------|--------------|--------------|
G|-4h5-5--5-7-|-7----4-----|------------4-|------------4-|
D|------------|--------5---|-5----5-5-5---|-5----5-5-5---|
A|------------|------------|--------------|--------------|
E|------------|------------|--------------|--------------|


 w/Rhy Fig 4
   Gtrs IV, V
                      ~~~          ~~         ~~~
   a H    a E.  T T   Q.   E E E   H    E E   H.
e|------------------|------------|----------|------------|
B|-3h5----3h5p==3h5p|=3----------|----------|------------|
G|-4-5----4-5---4-5-|-4----5-4---|-4----4-4-|-5----------|
D|------------------|------7-5---|-5----5-5-|-7----------|
A|------------------|------------|----------|------------|
E|------------------|------------|----------|------------|
  a H    a E.  T T   Q.   E E E   H    E E   H.


                ~~~                         ~~
   E Q.   E E   Q.   E E E   Q.   S S E E   H    +E  E
e|----------3-|-3----------|--------------|------------||
B|-3h5----5-5-|-5----3-----|------------5-|-3----(3)---||
G|-4-5----5---|------4-4---|-4----4-4-4-4-|-4----(4)---||
D|------------|--------5---|-5----5-5-5---|-5----(5)---||
A|------------|------------|--------------|------------||
E|------------|------------|--------------|------------||
  E Q.   E E   Q.   E E E   Q.   S S E E   H    +E  E


   Gtr II
           |-3-|
   E E E E S S S E   Q   Q    Q      Q  E E  Q      E E Q  Q
e|-----------------|---------------|--------------|-----------|
B|-0h1-----0h1p0---|-0-------------|--------------|-----------|
G|-----2---------2-|-----2----0----|-0-------0----|-0h2-------|
D|-------2---------|---------------|----2---------|-----0-----|
A|-0---------------|---------------|------2-------|--------0--|
E|-----------------|-3-----3-(3)-3-|-0------(0)-0-|-1---------|
  H.                Q.    E +E  E   H      +E  E   H.


   Q  E E  Q      Q.      E Q     Q  E E  E  E    Q   E E  Q
e|--------------|---------------|--------------|-----------------|
B|-1-------3----|-3-------0-----|------------0-|-(0)-------3-----|
G|----2---------|-----------0---|-0-------0----|--0--------------|
D|------2-------|---------------|----2---------|------0----------|
A|-0------(0)---|---------------|------2-----2-|--------2-----0--|
E|------------0-|-3---(3)-----0-|-0------(0)---|--3-------(3)----|
  H      +E  E   Q   +Q.     E   H      +E  E    H       +E  E


           |-3-|
   Q   E E S S S E   Q   Q    Q      Q  E E  Q      E E Q  Q
e|-----------------|---------------|--------------|-----------|
B|-1-------0h1p0---|-0-------------|--------------|-----------|
G|-----2---------2-|-----2----0----|-0-------0----|-0h2-------|
D|-------2---------|---------------|----2---------|-----0-----|
A|-0---------------|---------------|------2-------|--------0--|
E|-----------------|-3-----3-(3)-3-|-0------(0)-0-|-1---------|
| H.                Q.    E +E  E   H      +E  E   H.
|
 | Gtr III
 |     <                 <              <               <
 |     ~                 ~              ~               ~
 | q   h             q   h           q  h           q   h
e|-----------------|---------------|--------------|-----------|
B|-----------------|---------------|--------------|-----------|
G|-----5-----------|-----7---------|--------------|-----------|
D|-----------------|-----5---------|----5---------|-----7-----|
A|-----------------|---------------|--------------|-----------|
E|-----7-----------|---------------|----7---------|-----8-----|


   q  e e  q      q.     e q     q  e e  e  e    q   e e  e  e
e|--------------|--------------|--------------|-----------------|
B|-1-------3----|-3------0-----|------------0-|-(0)-------3p=0--|
G|----2---------|----------0---|-0-------0----|--0--------------|
D|------2-------|--------------|----2---------|------0----------|
A|-0------(0)---|--------------|------2-----2-|--------2-----0--|
E|------------0-|-3---3------0-|-0------(0)---|--3-------(3)----|
| h      +e  e   q   q.     e   h      +e  e    h       +e  e
|
 |    <               <             <                <
 |    ~               ~~            ~                ~
 | q  h           q   h          q  h            q   h
e|--------------|--------------|--------------|-----------------|
B|--------------|--------------|--------------|-----------------|
G|----5---------|-----7--------|--------------|------4----------|
D|--------------|-----5--------|----5---------|-----------------|
A|--------------|--------------|--------------|------5----------|
E|----7---------|--------------|----7---------|-----------------|

  |-rhy fig 5
             |-3-|
     q   e e s s s e   q   q    q      q  e e  q      e e q  q
e||------------------|---------------|--------------|----------|
B||o-1-------0h1p0---|-0-------------|--------------|----------|
G||------2---------2-|-----2----0----|-0-------0----|-0h2------|
D||--------2---------|---------------|----2---------|-----0----|
A||o-0---------------|---------------|------2-------|--------0-|
E||------------------|-3-----3-(3)-3-|-0------(0)-0-|-1--------|
|   h.                q.    e +e  e   h      +e  e   h.
|
 |       <                 <              <               <
 |       ~                 ~              ~               ~
 |   q   h             q   h           q  h           q   h
e||------------------|---------------|--------------|----------|
B||o-----------------|---------------|--------------|----------|
G||------5-----------|-----7---------|--------------|----------|
D||------------------|-----5---------|----5---------|-----5----|
A||o-----------------|---------------|--------------|----------|
E||------7-----------|---------------|----7---------|-----7----|


   q  e e  q      q.     e q     q  e e  e  e    q   e e  e  e
e|--------------|--------------|--------------|------------------||
B|-1-------3----|-3------0-----|------------0-|-(0)-------3p=0--o|| end
G|----2---------|----------0---|-0-------0----|--0---------------|| rhy fig 5
D|------2-------|--------------|----2---------|------0-----------||
A|-0------(0)---|--------------|------2-----2-|--------2-----0--o||
E|------------0-|-3---3------0-|-0------(0)---|--3-------(3)-----||
| h      +e  e   q   q.     e   h      +e  e    h       +e  e
|
 |    <               <             <                <
 |    ~               ~~            ~                ~
 | q  h           q   h          q  h            q   h
e|--------------|--------------|--------------|------------------||
B|--------------|--------------|--------------|-----------------o||
G|----5---------|-----7--------|--------------|------4-----------||
D|--------------|-----5--------|----5---------|------------------||
A|--------------|--------------|--------------|------5----------o||
E|----7---------|--------------|----7---------|------------------||


w/rhy fig 5 x2

   gtr iv
     ~~                                                             ~~
   a q.    e e     e   s s e q.       s s   e e e e  e  e   s s e a q.    s s
e|-------------------|--------------------|---------------|-------------------|
B|-------------------|--------------------|---------------|-------------------|
G|-7h9-----9-7s====5-|-5h7p4-2--------0h2-|-4-5-5-4--0--5-|-5p4---------------|
D|-------------------|--------------------|---------------|-----5-5s7-----5h7-|
A|-------------------|--------------------|---------------|-------------------|
E|-------------------|--------------------|---------------|-------------------|


                             ~~
                                         |-3--|
  s s s s s s s s  e  s  s   q.     e  e s  s s
|--------------------------|--------------------|
|--------------------------|--------------------|
|-4s5-5-5s7-7-7s9--9--9h10-|-9------9-10-9h10p9-|
|--------------------------|--------------------|
|--------------------------|--------------------|
|--------------------------|--------------------|


               |-3-|
   e e e e  e  s s s    q.    s s  q
e|-------------------|------------------|
B|-------------------|------------------|
G|-7s5-5s4-----4h5p4-|------------------|
D|----------5--------|--5-----5h7p=5----|
A|-------------------|------------------|
E|-------------------|------------------|


     ~~    pm|
   a q.    s s s   s   s s   s s s s +e  e  e  s s
e|-------------------------|-----------------------|
B|-------------------------|-----------------------|
G|-------------4h==5p==4---|-4h5p4-4-(4)-5--7--7s9-|
D|-5h7-----7-7-----------5-|-----------------------|
A|-------------------------|-----------------------|
E|-------------------------|-----------------------|


   ~~
   q.    e  s     +s  +e    e s     +s  +e  e e e
e|------------------------|------------------------|
B|------------------------|------------------------|
G|-7-----9--9b11==(9)r(9)-|-7----------------------|
D|------------------------|---9b11==(9)r(9)-7-5s9--|
A|------------------------|------------------------|
E|------------------------|------------------------|


      ~~~                              ~~
                                             |--3--|  |--3--|
   a  q.     s  s  s  s  s  s    s  s  q     s  s  s  s  s  s  e
|-----------------------------|----------------------------------|
|-----------------12h13p12----|-12h13-12----12h15p12-12h13p12----|
|-12h14-----14-14----------12-|-------------------------------12-|
|-----------------------------|----------------------------------|
|-----------------------------|----------------------------------|
|-----------------------------|----------------------------------|


    ~~~
    q.     e  s  s  e    e   e  e  e  e      +e
e|--------------------|---------------------------||
B|-----------13p12----|-----15-13-12--------------||
G|-12-----12-------12-|-12-----------14b16==(14)r=||
D|--------------------|---------------------------||
A|--------------------|---------------------------||
E|--------------------|---------------------------||


 w/rhy fig 4 x2
   gtr iv
                    ~~           ~          ~~
   h    a e.  t t   q.   e e e   h    e e   h.
e|----------------|------------|----------|-----------|
B|----------------|------------|----------|-----------|
G|-5----4h5p==4h5p|=4----------|----------|-----------|
D|----------------|------7-5---|-5----5-5-|-7---------|
A|----------------|------------|----------|-----------|
E|----------------|------------|----------|-----------|


       ~        ~~
   e e q  e e   q.   e e e   q.   s s e e   q.   s s e e
e|------------|------------|--------------|--------------|
B|------------|------------|--------------|--------------|
G|-4s5-5--5-7-|-7----4-----|------------4-|------------4-|
D|------------|--------5---|-5----5-5-5---|-5----5-5-5---|
A|------------|------------|--------------|--------------|
E|------------|------------|--------------|--------------|


   gtrs iv, v
                      ~~~          ~~         ~~~
   a h    a e.  t t   q.   e e e   h    e e   h.
e|------------------|------------|----------|------------|
B|-3h5----3h5p==3h5p|=3----------|----------|------------|
G|-4-5----4-5---4-5-|-4----5-4---|-4----4-4-|-5----------|
D|------------------|------7-5---|-5----5-5-|-7----------|
A|------------------|------------|----------|------------|
E|------------------|------------|----------|------------|
  a h    a e.  t t   q.   e e e   h    e e   h.


                ~~~
   e q.   e e   q.   e e e   q.   s s e e   q.   s s e e
e|----------3-|-3----------|--------------|--------------|
B|-3h5----5-5-|-5----3-----|------------5-|------------3-|
G|-4-5----5---|------4-4---|-4----4-4-4-4-|-4----4-4-4-4-|
D|------------|--------5---|-5----5-5-5---|-5----5-5-5---|
A|------------|------------|--------------|--------------|
E|------------|------------|--------------|--------------|
  e q.   e e   q.   e e e   q.   s s e e   q.   s s e e


    a5       e g   a5       e g   a5      e f#  g5(type 2e     g5(type 2)e
    q.     e e e   q.     e e e   q.    e e e   q  e e e e     q   e e e e
    |      | | |   |      | | |   |     | | |   |  | | | |     |   | | | |
    /      / o o   /      / o o   /     / o o   /  / / / o     /   / / / o

                                                                ~~~
     e  q.    e e   e  q.    e e   e  q  e e e   q  e e e e   a q.    e e e
e||---------------|--------------|-3-------3---|------------|-----------------||
B||o--------------|-5--------5---|-5--5--5-5-5-|-3--3-3-3-5-|-5s6-----6-6-8--o||
G||--5------------|-5--5-----5---|----5--5---5-|-4--4-4-4-5-|-5s7-----7-7-9---||
D||--7--7-----7---|----7---------|-------------|-5--5-5-----|-----------------||
A||o----7-----7---|--------------|-------------|------------|----------------o||
E||---------------|--------------|-------------|------------|-----------------||
    e  q.    e e   e  q.    e e   e  q  e e e   q  e e e e   a q.    e e e


  b5      f#a   b5      f#a   b5      f#g#  a
  q   e e e e   q   e e e e   q   e e e e   q   e e e e
  |   | | | |   |   | | | |   |   | | | |   |   | | | |
  /   / / o o   /   / / o o   /   / / o o   /   / / / /

                                             ~~~
   e q   e e e   e q   e e e   e q   e e e   q.    e e e
e|-------------|-------------|-5-------5---|-------------|
B|-------------|-7-------7---|-7-7---7-7-7-|-5-----5-5-7-|
G|-7-------7---|-7-7---7-7---|---7---7---7-|-6-----6-6-7-|
D|-9-9---9-9---|---9---9-----|-------------|-------------|
A|---9---9-----|-------------|-------------|-------------|
E|-------------|-------------|-------------|-------------|
  e q   e e e   e q   e e e   e q   e e e   q.    e e e


                    b5
    e  e e e e  e   e q  e e e   e q  e e e   q.    e e e
    |  | | | |  |   | |  | | |   | |  | | |   |     | | |
    /  / / / /  /   / /  / / /   / /  / / /   /     / / /

     ~~~               ~~
   a q.     e e  e   e q  e e e   e q  e e e   e  q  e e e
e|-----------------|------------|------------|-------------|
B|-7s8------8-8-10-|------------|-7------7---|-------------|
G|-7s9------9-9-11-|-7------7---|-7-7--7-7-7-|-7-------7---|
D|-----------------|-9-9--9-9-9-|---9--9---9-|-9--9--9-9-9-|
A|-----------------|---9--9---9-|------------|----9--9---9-|
E|-----------------|------------|------------|-------------|
  a q.     e e  e   e q  e e e   e q  e e e   e  q  e e e


                                            f#5
  q.    e e e   q.    e e e   q.    e e e    h.
  |     | | |   |     | | |   |     | | |    |
  /     / / /   /     / / /   /     / / /    /

   e  q  e e e   e  q  e e e   e  q  e e e    q.    s  s  e  a  e
e|-------------|-------------|-7-------7---|-----------------------|
B|-------------|-7-------7---|-7--7--7-7-7-|-----------------------|
G|-7-------7---|-7--7--7-7-7-|-7--7--7-7-7-|-11----11-11-11-11s12--|
D|-9--9--9-9-9-|-9--9--9-9-9-|-9--9--9-9-9-|-11----11-11-11-11s12--|
A|----9--9---9-|----9--9---9-|----9--9---9-|--9-----9--9--9-----9--|
E|-------------|-------------|-------------|-----------------------|
  e  q  e e e   e  q  e e e   e  q  e e e    q.    s  s  e     e


  +h.         +h.                  +h.
   |           |                    |
   /           /                    /

    h.          e   e  q   s  e.    +h.
e|----------|---9---9--9---9s10--|-(10)----||
B|-11-------|--11--11-11--11s12--|-(12)----||
G|-11-------|--------------------|---------||
D|-11-------|-(11)---------------|-(11)----||
A|--9-------|--(9)---------------|--(9)----||
E|----------|--------------------|---------||
   h.         +h.                  +h.

   4/4
   rhy fig 2 x2 ->       d.s. al coda


 &
  f#5                     g
  gtrs ii, iii
  q      q    q   e   e   q      q    q  e     e
  |      |    |   |   |   |      |    |  |     |
  /      /    /   /   /   /      /    /  /     /

   gtr iv
                                          |-3-|
   e e   +e  e e e s s e   e e   +e  e q  s s s e
e|-----------------------|------------------------|
B|---5b7r(5)-2-----------|---6b8r(6)-3------------|
G|-----------------------|------------------------|
D|-------------4-4-4p2---|-------------5--5p4p2---|
A|---------------------4-|----------------------4-|
E|-----------------------|------------------------|


   f#5                  a5       g5      f#5
   q       q   q  e e   h    e   e   e   e
   |       |   |  | |   |    |   |   |   |
   /       /   /  / /   /    /   /   /   /

         ~~~             ~
    e   +q    e q  e e   h    s s s s s s s s
e|---------------------|----------------------|
B|--5b7r(5)---2--------|----------------------|
G|-------------------2-|-2----2h4p2s1-1h2p1---|
D|--------------4--4---|--------------------4-|
A|---------------------|----------------------|
E|---------------------|----------------------|


                   g
 3/4
  h           q    h           q    q.         e q
  |                |                |            |
  /                /                /            /

               ~                ~
   e e   +e  e q    e e   +e  e q    e  e   +e  e q
e|----------------|----------------|-----------------|
B|---5b7r(5)-2----|---6b8r(6)-3----|----3b5r(3)p0----|
G|----------------|----------------|-----------------|
D|-------------4--|-------------5--|--------------2--|
A|----------------|----------------|-----------------|
E|----------------|----------------|-----------------|


   4/4
    gtrs ii, iii
    rhy fig 2 x2


 6/4
  q  h    q  q  q    q  h    q  q  q    q  h    q  q  q
|------------------|------------------|-------------------||
|-2--2----2--2-----|-2--2----2--2-----|-2--2----2--2------||
|-3--3----3--3-----|-3--3----3--3-----|-3--3----3--3------||
|-4--4----4--4-----|-4--4----4--4-----|-4--4----4--4------||
|-4--4----4--4-----|-4--4----4--4-----|-4--4----4--4------||
|-2--2----2--2-----|-2--2----2--2-----|-2--2----2--2------||
|-rhy fig 6 -------|

    q=56
   4/4
gtrs ii & iii play rhy fig 6 at tempo=100 for 4 bars fading out
    gtr i
    rhy fig 1 x2
    rhy fig 1 - 1st bar only

  7/8
                         |-3-|
    e    e  e  e    s  s t t t s s  s
e|-10------10--------------------0--0--*|
B|-10---------------7--8-7h8p7---0--0--*|
G|-11---------11----7--7-7-----9-9-11--*|
D|-12---12-----------------------------*|
A|-12------------12--------------------*|
E|-10----------------------------------*|
   q..           s q.



************************************

| h    Hammer-on
| p    Pull-off
| (n)  Ghost note
| s    Slap
| /    Slide up
| x    Dead note
| \    Slide down
| PM   Palm mute
| b    Bend
| ~    Vibrato
| r    Release
| pb   Pre-bend
| tp   Tremolo picking

************************************
Suggest correction
comments
print report bad tab
3 comments total.
0 reply
met_al_lica69 90 Jan 29, 2005 12:00 AM

good tab bro......i give it a 5 star!

-1 reply
McNuggets100 214 Dec 30, 2006 08:09 PM

Its a good tab and all, accurate, but I hate all that technical letters and numbers above the lines, it is not needed

0 reply
McNuggets100 214 Dec 30, 2006 08:10 PM

You should check out my tab of Blackened it is version 5. Thats how it should be

guest
You may want to rate the tab now too:
select rating
Wanna post a correction for this tab? Suggest correction