Oops, an error
Loading. Please wait.

To Live Is To Die Tab

version 4
version 4
107,108 views 84 this week
2 commentsread comments
1 2 3 4 5
x 8
add to favorites
launch autoscroll
font size
0
reset
how to read this tab
guitar tuner
Autoscroll
slow
fast
+/-
esc
set tempo
stop
Help us to improve Ultimate-Guitar.com Take our survey!
×
[Intro]

  Acoustic Guitar               ( Starts to become clearer )

1a)
E|------7-7-12-12-12--7-7-8-7-10-7h8p7-7-7-----------7-|
B|--8-8---------------0-0---0----------7-7-7-------7-7-|
G|--9-9-7-7-9--9--9---0-0---0----------7-7---7---7---7-|
D|---------------------------------------------9-------|
A|-----------------------------------------------------|
E|-----------------------------------------------------|

1b) continued
E|--10-10---------------------------|
B|--10-10-7-8-7h8p7-----------------|
G|--------7-7---------9/11\9--------|
D|----------------------------------|
A|-----------------------------/9-7-|
E|---------------------------0------|
clean


  Guitar I      RIFF  1.
e|--------------------------------------------------------|** play 3 times**
B|--------------------------------------------------------|
G|--------------------------------------------------------|
D|--------------------------------------------------------|
A|-4-4--------4--5-5-----5p4--4-4--------4-7-7--7\5--5\4--|
E|-2-2-x-x--0-2--3-3-x-x-3p2--2-2-x-x--0-2-5-5--5\3—-3\2--|

                RIFF  2.
e|------------------------------------------------------------|
B|------------------------------------------------------------|
G|------------------------------------------------------------|
D|------------------------------------------------------------|
A|-4------5------4------7---------4------5------4------7------|
E|-2-2-2--3-3-3--2-2-2--5-5-5-----2-2-2--3-5-5--2-2-2--5-5-5--|

e|-----------------------------------------|--------------------|
B|-----------------------------------------|o------------------o|
G|-----------------------------------------|--------------------|
D|-----------------------------------------|--------------------|
A|-4-5---4-7---4-5---4-7---4-5-4-7-4-5-4-7-|o------------------o|
E|-2-3---2-5---2-3---2-5---2-3-2-5-2-3-2-5-|---2-3-2-5-2-3-2-5--|

e|--------------------------------------------------------|** play 2 times**
B|--------------------------------------------------------|
G|--------------------------------------------------------|
D|--------------------------------------------------------|
A|-4-4--------4--5-5-----5p4--4-4--------4-7-7--7\5--5\4--|
E|-2-2-x-x--0-2--3-3-x-x-3p2--2-2-x-x--0-2-5-5--5\3—-3\2--|


e|------------------------------------------------------------|
B|------------------------------------------------------------|
G|------------------------------------------------------------|
D|------------------------------------------------------------|
A|-4------5------4------7---------4------5------4------7------|
E|-2-2-2--3-3-3--2-2-2--5-5-5-----2-2-2--3-5-5--2-2-2--5-5-5--|

e|-----------------------------------------|--------------------|
B|-----------------------------------------|o------------------o|
G|-----------------------------------------|--------------------|
D|-----------------------------------------|--------------------|
A|-4-5---4-7---4-5---4-7---4-5-4-7-4-5-4-7-|o------------------o|
E|-2-3---2-5---2-3---2-5---2-3-2-5-2-3-2-5-|---2-3-2-5-2-3-2-5--|

  Guitar II           ( Play RIFF 1. two times under this part )
e|------------------------------------------|
B|------------------------------------------|** play 2 times **
G|-11\6-6----4-6-7\4-4------4-6\3-3--3-3-2--|
D|------------------------------------------|
A|-9--4-4----2-4-5-2-2------2-4-1-1--1-1-0--|
E|------------------------------------------|

  Guitar I
e|-------------------------------------------------------------------------------------|
B|-------------------------------------------------------------------------------------|
G|-------------------------------------------------------------------------------------|
D|-----------5-4---4----------------6p5-4------------5-4---4--------------------6p5-4--|
A|-4-4--7-4--3-2---2-4---7---4--4-4-4p3-2--4-4--7-4--3-2---2-4-x-x-x-7---4--4-4-4p3-2--|
E|-2-2--5-2----------2---5---2--2-2--------2-2--5-2----------2-------5---2--2-2--------|


  Guitar II            ( Play RIFF 1. two times under this part )
e|-------------------------------------------------------------|
B|-7b9r7p5-----8b10r8p6----7b9r7p5-----------------------------|** play 2 times
G|---------6-----------7-----------6--3h6-4--4\2-2h4--2\1-1h2--|
D|-------------------------------------------------------------|
A|-------------------------------------------------------------|
E|-------------------------------------------------------------|

  Guitar I
e|------------------------------------------------------------|
B|------------------------------------------------------------|
G|------------------------------------------------------------|
D|------------------------------------------------------------|
A|-4------5------4------7---------4------5------4------7------|
E|-2-2-2--3-3-3--2-2-2--5-5-5-----2-2-2--3-5-5--2-2-2--5-5-5--|

e|-----------------------------------------|--------------------|
B|-----------------------------------------|o------------------o|
G|-----------------------------------------|--------------------|
D|-----------------------------------------|--------------------|
A|-4-5---4-7---4-5---4-7---4-5-4-7-4-5-4-7-|o------------------o|
E|-2-3---2-5---2-3---2-5---2-3-2-5-2-3-2-5-|---2-3-2-5-2-3-2-5--|


                ( Play RIFF 1. four times and RIFF 2. once under the solo )
  Guitar II


[Solo]

e|--------------------------------------------------------------|
B|---16b17-------(16)-------(16)--------------------------------|
G|---16b18-------(16)-------(16)-------14-16-16-16---16-16---14-|
D|--------------------------------------------------------------|
A|--------------------------------------------------------------|
E|--------------------------------------------------------------|

e|---------------------------------------------------------------------------|
B|------------17b19~~----17-15--14-------------------------------------------|
G|-16-16-14~------------------------16-14----14-16-16b18r16p14------------14-|
D|----------------------------------------16-------------------16~~----16----|
A|---------------------------------------------------------------------------|
E|---------------------------------------------------------------------------|

e|-------------------------------------------------------------------------------|
B|-------------------------------------------------------------------------------|
G|-16b18r16p14-------14\16~---------14-16--16b18r16p14----------14---------14-16-|
D|-------------16~------------14h16--------------------16~---16----16~--16-------|
A|-------------------------------------------------------------------------------|
E|-------------------------------------------------------------------------------|

e|------------------------------------------------------------|
B|-----------------------------------------------------17b19~-|
G|-16b18r16p14-16-16b18r16p14-16b18r16p14-16b18r16p14---------|
D|------------------------------------------------------------|
A|------------------------------------------------------------|
E|------------------------------------------------------------|

e|-----------------------------------------------------------------|
B|-17-15-14--------------------------------------------------------|
G|----------16-14----14-16-16b18r16-14------------------14h16-14~~-|
D|----------------16------------------------------14h16------------|
A|------------------------------------------14h16------------------|
E|-----------------------------------------------------------------|

e|-------------------------------------------------------------------------------|
B|----------------------------------------------16b17r16----16b17r16----16b17r16-|
G|-------------14h16-14~~-----------------14h16-16b18r16-14-16b18r16-14-16b18r16-|
D|-------14h16----------------------14h16----------------------------------------|
A|-14h16----------------------14h16----------------------------------------------|
E|-------------------------------------------------------------------------------|

e|----------------------------------------------------------------------|
B|----16b17r16-14-16b17r16-14-17b19---17b19~~---------------------------|
G|-14-16b18r16-14-16b18r16-14-------------------------------------------|
D|----------------------------------------------------------------------|
A|----------------------------------------------------12-14-14-12-16-14-|
E|----------------------------------------------14-14-------------------|

e|-------------------------------------------------------------------------|
B|-------------------------------------16---------16-16----------16--------|
G|-------------14-----16-14-14-(16)-16----14-(16)-16-16-14----16----14b15--|
D|-14----16-14----16------------16------------16-----------16--------------|
A|----16-------------------------------------------------------------------|
E|-------------------------------------------------------------------------|

e|--------------------17--------------------------------------------|
B|---------17--------------------17---------------------------------|
G|-16b18------16b18------16b18------16b18---16-15-14----------------|
D|---------------------------------------------------16-15-14-------|
A|------------------------------------------------------------16-14-|
E|------------------------------------------------------------------|

e|----------------------|
B|----------------------|
G|----------------------|
D|-16-15-14-------------|
A|----------16-15-14-12-|
E|----------------------|


then this

   T      T      T       T       T      T      T       T
e|-14p9p6-14p9p6-15p10p7-15p10p7-14p9p6-14p9p6-15p10p7-15p10p7-|
B|-------------------------------------------------------------|
G|-------------------------------------------------------------|
D|-------------------------------------------------------------|
A|-------------------------------------------------------------|
E|-------------------------------------------------------------|

   T      T      T       T       T      T      T       T
e|-14p9p6-14p9p6-15p10p7-15p10p7-14p9p6-14p9p6-15p10p7-15p10p7-|
B|-------------------------------------------------------------|
G|-------------------------------------------------------------|
D|-------------------------------------------------------------|
A|-------------------------------------------------------------|
E|-------------------------------------------------------------|

   T      T       T      T       T      T       T      T
e|-14p9p6-15p10p7-14p9p6-15p10p7-14p9p6-15p10p7-14p9p6-15p10p7-|
B|-------------------------------------------------------------|
G|-------------------------------------------------------------|
D|-------------------------------------------------------------|
A|-------------------------------------------------------------|
E|-------------------------------------------------------------|

e|-14--15--17--19--20--22--22b24--22b24----22b24---------------|
B|-------------------------------------------------------------|
G|-------------------------------------------------------------|
D|-------------------------------------------------------------|
A|-------------------------------------------------------------|
E|-------------------------------------------------------------|

e|------------------------------------R---------R---------R----|
B|------------------------------------E---------E---------E----|
G|------------------------------------P---------P---------P----|
D|-----------5------------------------E---------E---------E----|
A|--7---------------------------------A--5------A---------A--5-|
E|--------------------7--------8------T---------T--7------T----|
each note rings


e|---------------------------------------------------------------------------|
B|---------------------------------------------------------------------------|
G|--7h9----9--7\5----5h7p4--2--0h2----4--5--5--4--0--5----5p4----------------|
D|-------------------------------------------------------------5--5/7---5h7--|
A|---------------------------------------------------------------------------|
E|---------------------------------------------------------------------------|

e-----------------------------------------------------------------------|
b-----------------------------------------------------------------------|
g--4/5-5-5/7-7-7/9-9-9h10--9---9-10-9h10p9--7\5-5\4---4h5p4-------------|
d---------------------------------------------------5--------5---5h7p5--|
a-----------------------------------------------------------------------|
e-----------------------------------------------------------------------|

e|-------------------------------------------------------------------------|
B|-----------------------------------------------------/\------------------|
G|-------------4h5p4-----4h5p4--4--5--7--7/9--7---9--9'  `--7---/\---------|
D|-5h7---7--7---------5---------------------------------------9'  `-7--5/9-|
A|-------------------------------------------------------------------------|
E|-------------------------------------------------------------------------|

use your compression (the feeling thing)
e|-------------------------------------------------------------------|
B|-----------------12h13p12------12h13--12----12h15p12--12h13p12-----|
G|-12h14---14--14------------12-----------------------------------12-|
D|-------------------------------------------------------------------|
A|-------------------------------------------------------------------|
E|-------------------------------------------------------------------|

e|-------------------------------------------|
B|------------13p12-----------15--13--12-----|
G|--12----12--------12----12--------------14-|
D|-------------------------------------------|
A|-------------------------------------------|
E|-------------------------------------------|

  Guitar II             ( Play RIFF 1. three times under this part )
e|-------------------------------------------------------------|
B|-7b9r7p5-----8b10r8p6----7b9r7p5-----------------------------|
G|---------6------------7----------6--3h6-4--4\2-2h4--2\1-1h2--|
D|-------------------------------------------------------------|
A|-------------------------------------------------------------|
E|-------------------------------------------------------------|


e|-------------------------------------------------------------|
B|-7b9r7p5-----8b10r8p6----7b9r7p5-----------------------------|
G|---------6------------7----------6--3h6-4--4\2-2h4--2\1-1h2--|
D|-------------------------------------------------------------|
A|-------------------------------------------------------------|
E|-------------------------------------------------------------|


e|---------------------------------------------------------------------------|
B|-7b9r7p5-----8b10r8p6-----5b7r5p3-----8b10r8p6-----------------------------|
G|---------6------------7-----------4------------7\4----4h5-(5)-4\2--4--2----|
D|------------------------------------------------------------------------5--|
A|---------------------------------------------------------------------------|
E|---------------------------------------------------------------------------|


e|-----------------------------------------------------------------------------|
B|-----------------------------------------------------------------------------|
G|-----------------4h5--4-5-7---4--------------4------------4h5---4\2--4--2----|
D|-5---5-5-5-5--7-------------------5---5--5-5-5---5----5-5-5----------------5-|
A|-----------------------------------------------------------------------------|
E|-----------------------------------------------------------------------------|


e|----------------------------------------------------|
B|----------------------------------------------------|
G|-------------------4h5--4-5-7---4--------------4----|
D|-5---5-5-5-5--7-------------------5---5--5-5-5---5--|
A|----------------------------------------------------|
E|----------------------------------------------------|


  Acoustic Guitar
e|---------------------------------------------------------|
B|---------------------------------------------------------|
G|-4h5-(5)-4h5p4-4\2-----------------5--7-7--4--------4----|
D|-------------------5--5-5-5h7-7--------------5-5--5---5--|
A|---------------------------------------------------------|
E|---------------------------------------------------------|

  Acoustic Guitar               RIFF  3.
e|-------------------------------------------------------|** play 3 times **
B|-------------------------------------------------------|
G|-7--5--4h5p4-4\2-----------------5--7-7--4--------4----|
D|-----------------5--5-5-5h7-7--------------5-5--5---5--|
A|-------------------------------------------------------|
E|-------------------------------------------------------|
                                ( Play RIFF 3. two times under the solo )
  Guitar II
e|-----------------------------------------------------------------------------|
B|-----------------------------------------------------------------------------|
G|-9--9-7\5--5p4---------4h5--5-7--5-4-5p4-----------4h5-5-5--5h7-7-7--7h9-9-9-|
D|---------------7---5-7-------------------5/7---5-7---------------------------|
A|-----------------------------------------------------------------------------|
E|-----------------------------------------------------------------------------|

e|-----------------------------------------------------------------------------|
B|-----------------------------------------------------------------------------|
G|-9b1or9--9-10-9\7--7p5-5p4--4-5p4-----------------4h5p4--4h5p4---4--5-5p4-7--|
D|----------------------------------5---5h7-7p5-7------------------------------|
A|-----------------------------------------------------------------------------|
E|-----------------------------------------------------------------------------|

e|-----------------------------------------------------------------------------|
B|---------------------10---10-10-10h12p10--10h12p10--10-12p10-8---10-12p10-8--|
G|-9-9h10p9-9-7\5-5p4----------------------------------------------------------|
D|----------------------5/7----------------------------------------------------|
A|-----------------------------------------------------------------------------|
E|-----------------------------------------------------------------------------|

e|-------------------------------|
B|-10-13p12-10p8--10h12p10-(10)--|
G|-------------------------------|
D|-------------------------------|
A|-------------------------------|
E|-------------------------------|


  Guitar I
e|-----------------------------------------------------------------------------|
B|-----------------------------------------------------------------------------|
G|4h5-(5)-4\2--4--2----------------------4h5--4-5-7---4--------------4---------|
D|------------------5--5---5-5-5-5--7-------------------5---5--5-5-5---5--5-5-5|
A|-----------------------------------------------------------------------------|
E|-----------------------------------------------------------------------------|


e|-----------------------------------------------------------------------|
B|-----------------------------------------------------------------------|
G|-4h5---4\2--4--2----------------------4h5--4-5-7---4--------------4----|
D|-----------------5--5---5-5-5-5--7-------------------5---5--5-5-5---5--|
A|-----------------------------------------------------------------------|
E|-----------------------------------------------------------------------|


e|-----------------------------------------------------------------------------|
B|-------------------------5-5--------------------------------------------5-5--|
G|-------4---5----5-5----5-----5--7h9-9-9-7--5h7-7-7-7-7h9---5---5-5---5------5|
D|-5-5-5-------7------7----------------------------------------7-----7---------|
A|-----------------------------------------------------------------------------|
E|-----------------------------------------------------------------------------|

e|----------------------------------------------------------------------------------|
B|-------------------------------------------7-7------------------------------------|
G|-7h9-9-9-7---5h7-7-7-7-7h9---7----7-7----7-----7---9h11-11-11-9---7h9-9-9-9-9h11--|
D|-------------------------------9------9-------------------------------------------|
A|----------------------------------------------------------------------------------|
E|----------------------------------------------------------------------------------|


e|---------------------------------------------------------------|
B|---------------7----------------------------------7----7-------|
G|-7----7-7----7---7----7-7--7----7-7--7-----7-7--7----7---7--9--|
D|---9------9--------9---------9---------9-----------------------|
A|---------------------------------------------------------------|
E|---------------------------------------------------------------|


e|--------------------------------|
B|----------------11-11-11-11h14--|
G|-9-9-9--10-12-------------------|
D|--------------------------------|
A|--------------------------------|
E|--------------------------------|

 
  Guitar I
e|--------------------------------------------------------|** play 2 times**
B|--------------------------------------------------------|
G|--------------------------------------------------------|
D|--------------------------------------------------------|
A|-4-4--------4--5-5-----5p4--4-4--------4-7-7--7\5--5\4--|
E|-2-2-x-x--0-2--3-3-x-x-3p2--2-2-x-x--0-2-5-5--5\3—-3\2--|


  Guitar II           ( Play RIFF 1. two times under this part )
e|------------------------------------------|
B|------------------------------------------|** play 2 times **
G|-11\6-6----4-6-7\4-4------4-6\3-3--3-3-2--|
D|------------------------------------------|
A|-9--4-4----2-4-5-2-2------2-4-1-1--1-1-0--|
E|------------------------------------------|

  Guitar I
e|-------------------------------------------------------------------------------------|
B|-------------------------------------------------------------------------------------|
G|-------------------------------------------------------------------------------------|
D|-----------5-4---4----------------6p5-4------------5-4---4--------------------6p5-4--|
A|-4-4--7-4--3-2---2-4---7---4--4-4-4p3-2--4-4--7-4--3-2---2-4-x-x-x-7---4--4-4-4p3-2--|
E|-2-2--5-2----------2---5---2--2-2--------2-2--5-2----------2-------5---2--2-2--------|
  Guitar II
e|-------------------------------------------------------------|
B|-7b9r7p5-----8b10r8p6----7b9r7p5-----------------------------|
G|---------6-----------7-----------6--3h6-4--4\2-2h4--2\1-1h2--|
D|-------------------------------------------------------------|
A|-------------------------------------------------------------|
E|-------------------------------------------------------------|

e|-------------------------------------|
B|-7b9r7p5-----8b10r8p6-----5b7r5p3----|
G|---------6------------7-----------4--|
D|-------------------------------------|
A|-------------------------------------|
E|-------------------------------------|

  Guitar I
e|--------------------------------------------------------|** play 2 times**
B|--------------------------------------------------------|
G|--------------------------------------------------------|
D|--------------------------------------------------------|
A|-4-4--------4--5-5-----5p4--4-4--------4-7-7--7\5--5\4--|
E|-2-2-x-x--0-2--3-3-x-x-3p2--2-2-x-x--0-2-5-5--5\3—-3\2--|

                                        ( Fade out )
e|--------------------------------------------------------------------------------------|
B|--------------------------------------------------------------------------------------|
G|--------------------------------------------------------------------------------------|
D|-4-4---4-4-----4-4---4-4------4-4---4-4------4-4---4-4------4-4---4-4------4-4---4-4--|
A|-2-2---2-2-----2-2---2-2------2-2---2-2------2-2---2-2------2-2---2-2------2—2---2-2--|
E|--------------------------------------------------------------------------------------|


  Acoustic Guitar

1a)
E|------7-7-12-12-12--7-7-8-7-10-7h8p7-7-7-----------7-|
B|--8-8---------------0-0---0----------7-7-7-------7-7-|
G|--9-9-7-7-9--9--9---0-0---0----------7-7---7---7---7-|
D|---------------------------------------------9-------|
A|-----------------------------------------------------|
E|-----------------------------------------------------|

1b) continued
E|--10-10---------------------------|
B|--10-10-7-8-7h8p7-----------------|
G|--------7-7---------9/11\9--------|
D|----------------------------------|
A|-----------------------------/9-7-|
E|---------------------------0------|
clean



************************************

| x    Dead note
| (n)  Ghost note
| h    Hammer-on
| p    Pull-off
| r    Release
| b    Bend
| /    Slide up
| \    Slide down
| ~    Vibrato

************************************
Suggest correction
comments
print report bad tab
2 comments total.
-1 reply
royturner23 1,507 Nov 08, 2009 12:21 AM

make your own tabs, don't copy and paste other people's work

0 reply
samcro 10 Dec 07, 2015 04:45 PM

are you serious its the worst tab of this song

sérieux fais plus de tab tu sais pas comment en faire tu induis en erreur les autres

guest
You may want to rate the tab now too:
select rating
Wanna post a correction for this tab? Suggest correction