Oops, an error
Loading. Please wait.

Too Late Too Late Bass Tab

version 1
version 1

Whole song

Interactive

277 views 3 this week
no commentswrite comment
1 2 3 4 5
please rate
add to favorites
launch autoscroll
font size
0
reset
guitar tuner
Autoscroll
slow
fast
+/-
esc
set tempo
stop
Help us to improve Ultimate-Guitar.com Take our survey!
×
Difficulty
novice
Intro Riff A
G|--------------|
D|-6-4----------|
A|------6-------|
E|------------3-|
B|--------4-6---|

Intro B & Verse Riff
G|-----------------|-----------------|
D|-----------------|-----------------|
A|-----------------|-----------------|
E|-4-4-4-4-4-4-4-4-|-4-4-4-4-4-----2-|
B|-----------------|-----------3-4---|

Chorus Riff
G|---------------|---------------|---------------|-----------------|
D|---------------|---------------|---------------|-----------------|
A|-6---6-----6-6-|-2---2-----2-2-|-1---1-----1-1-|---------------5-|
E|---------------|---------------|---------------|-4---4-----4-5---|
B|---------------|---------------|---------------|-----------------|

G|---------------|---------------|---------------|--------------------|
D|---------------|---------------|---------------|----------------2---|
A|-6---6-----6-6-|-4---4-----4-4-|-1---1---1---1-|-1---1---1--3-4-----|
E|---------------|---------------|---------------|--------------------|
B|---------------|---------------|---------------|--------------------|

Intro B/Verse Riff
Chorus Riff
Solo  1 Riff
G|-----------------|-----------------|
D|-----------------|-----------------|
A|-1-1-1-1-1-1-1-1-|-1-1-1-1-1-------|
E|-----------------|-------------1-4-|
B|-----------------|-----------4-----|
Intro B/Verse Riff
Chorus Riff
Solo 2 Same as Intro B/Verse Riff
Outro Chorus Riff
Suggest correction
Give kudos to tab author, rate the tab!
1 2 3 4 5
comments
print report bad tab
guest
You may want to rate the tab now too:
select rating
Please do not post tabs as comments. Select "correction" instead!