Oops, an error
Loading. Please wait.

Too Late Too Late Bass Tab

version 2
version 2

Whole song

Interactive

313 views 3 this week
no commentswrite comment
1 2 3 4 5
2 more votes to show rating
add to favorites
launch autoscroll
font size
0
reset
guitar tuner
Autoscroll
slow
fast
+/-
esc
set tempo
stop
Help us to improve Ultimate-Guitar.com Take our survey!
×
Author
Difficulty
-------------------------------------------------------------------------------
                             Too Late Too Late - Metallica
-------------------------------------------------------------------------------
Tabbed by: MetallicaDMRTL
Tuning:standard BEADG

i have to say i never have listen to motorhead but i must say motorhead is badass 
metal too, defenitlly play some guys!!!

G|--------------|
D|-6-4----------|
A|------6-------|
E|------------3-|
B|--------4-6---|

G|-----------------|-----------------|
D|-----------------|-----------------|
A|-----------------|-----------------| x16
E|-4-4-4-4-4-4-4-4-|-4-4-4-4-4-----2-|
B|-----------------|-----------3-4---|

G|---------------|---------------|---------------|-----------------|
D|---------------|---------------|---------------|-----------------|
A|-6---6-----6-6-|-2---2-----2-2-|-1---1-----1-1-|---------------5-|
E|---------------|---------------|---------------|-4---4-----4-5---|
B|---------------|---------------|---------------|-----------------|

G|---------------|---------------|---------------|--------------------|
D|---------------|---------------|---------------|----------------2---|
A|-6---6-----6-6-|-4---4-----4-4-|-1---1---1---1-|-1---1---1--3-4-----|
E|---------------|---------------|---------------|--------------------|
B|---------------|---------------|---------------|--------------------|

G|-----------------|-----------------|
D|-----------------|-----------------|
A|-----------------|-----------------| x12
E|-4-4-4-4-4-4-4-4-|-4-4-4-4-4-----2-|
B|-----------------|-----------3-4---|

G|---------------|---------------|---------------|-----------------|
D|---------------|---------------|---------------|-----------------|
A|-6---6-----6-6-|-2---2-----2-2-|-1---1-----1-1-|---------------5-|
E|---------------|---------------|---------------|-4---4-----4-5---|
B|---------------|---------------|---------------|-----------------|

G|---------------|---------------|---------------|--------------------|
D|---------------|---------------|---------------|----------------2---|
A|-6---6-----6-6-|-4---4-----4-4-|-1---1---1---1-|-1---1---1--3-4-----|
E|---------------|---------------|---------------|--------------------|
B|---------------|---------------|---------------|--------------------|

G|-----------------|-----------------|
D|-----------------|-----------------|
A|-----------------|-----------------| x8
E|-6-6-6-6-6-6-6-6-|-6-6-6-6-6-----4-|
B|-----------------|-----------4-6---|

G|-----------------|-----------------|
D|-----------------|-----------------|
A|-----------------|-----------------| x12
E|-4-4-4-4-4-4-4-4-|-4-4-4-4-4-----2-|
B|-----------------|-----------3-4---|

G|---------------|---------------|---------------|-----------------|
D|---------------|---------------|---------------|-----------------|
A|-6---6-----6-6-|-2---2-----2-2-|-1---1-----1-1-|---------------5-|
E|---------------|---------------|---------------|-4---4-----4-5---|
B|---------------|---------------|---------------|-----------------|

G|---------------|---------------|---------------|--------------------|
D|---------------|---------------|---------------|----------------2---|
A|-6---6-----6-6-|-4---4-----4-4-|-1---1---1---1-|-1---1---1--3-4-----|
E|---------------|---------------|---------------|--------------------|
B|---------------|---------------|---------------|--------------------|

G|-----------------|-----------------|
D|-----------------|-----------------|
A|-----------------|-----------------| x8
E|-4-4-4-4-4-4-4-4-|-4-4-4-4-4-----2-|
B|-----------------|-----------3-4---|

G|---------------|---------------|---------------|-----------------|
D|---------------|---------------|---------------|-----------------|
A|-6---6-----6-6-|-2---2-----2-2-|-1---1-----1-1-|---------------5-|
E|---------------|---------------|---------------|-4---4-----4-5---|
B|---------------|---------------|---------------|-----------------|

G|---------------|---------------|---------------|--------------------|
D|---------------|---------------|---------------|----------------2---|
A|-6---6-----6-6-|-4---4-----4-4-|-1---1---1---1-|-1---1---1--3-4-----|
E|---------------|---------------|---------------|--------------------|
B|---------------|---------------|---------------|--------------------|

G|-------------|
D|-------------|
A|-0-0-0-0-3-0-|
E|-------------|
B|-------------|

sweet bass mr. kilmister but yeah enjoi i think its good idk, its good in my opinion

MetallicaDMRTL

                         \m/Metallica\m/
Suggest correction
Give kudos to tab author, rate the tab!
1 2 3 4 5
comments
print report bad tab
guest
You may want to rate the tab now too:
select rating
Wanna post a correction for this tab? Suggest correction