Oops, an error
Loading. Please wait.

Trapped Under Ice Tab

version 1
version 1
66,676 views 21 this week
13 commentsread comments
1 2 3 4 5
x 16
add to favorites
launch autoscroll
font size
0
reset
how to read this tab
guitar tuner
backing track
0:00
0:00
×
Best way to learn
"Trapped Under Ice"
Autoscroll
slow
fast
+/-
esc
set tempo
stop
Author
[Intro]
e|---------------------------------------------------------------------------------|
B|---------------------------------------------------------------------------------|
G|----------5-----9---------------5------------------------------------------------|
D|----------5-----9---------------5-----5-----------5--5-5--5----------------------|
A|----------7-----7---------------3-----5-----------5--5-5--5----------------------|
E|--0-0---------------------0-0---------3-----------3--3-3--3----------------------|
  pm...                     ....                    .........

e|--------------------------------------------------------------------------------|
B|--------------------------------------------------------------------------------|
G|-------5---9-------------5----------10-10-10------------------------------------|
D|-------5---9-------------5----5-----10-10-10---or-------------------------------|
A|-------7---7-------------7----5------8--8--8-------8-8-8------------------------|
E|-0-0--------------0-0---------3--------------------8-8-8------------------------|
pm..             .....

[Verse]
e|-------------------------------------------------------------------------------------|
B|-------------------------------------------------------------------------------------|
G|-------------------------------------------------------------------------------------|
D|-----------------------------------------------------------0-------------------------|
A|----------------------------------------------------3-2-0----------------------------|
E|--0h2-222222222220h2-2222222222220h2-2222220h2---------------------------------------|

[Chorus]
e|---------------------------------------------------------------------------------|
B|---------------------------------------------------------------------------------|
G|---------------------------------------------------------------------------------|
D|------6--7-----9--9-x--9-----6--7-------9---9-x-9--------------------------------|
A|------6--7-----9--9-x--9-----6--7-------9---9-x-9--------------------------------|
E|------4--5-----7--7-x--7-----4--5-------7---7-x-7--------------------------------|
freezing cant move at all   freezing cant hear my call

e|-----------------------------------------|
B|-----------------------------------------|
G|-----------------------------------------|
D|--4--5----7-7-x-7-------6--7---9-9--x-9--|
A|--4--5----7-7-x-7-------6--7---9-9--x-9--|
E|--2--3----5-5-x-5-------4--5---7-7--x-7--|     i im dying to live  im am trapped under ice

[Verse]
e|-------------------------------------------------------------------------------------|
B|-------------------------------------------------------------------------------------|
G|-------------------------------------------------------------------------------------|
D|-----------------------------------------------------------0-------------------------|
A|----------------------------------------------------3-2-0----------------------------|
E|--0h2-222222222220h2-2222222222220h2-2222220h2---------------------------------------|

[Chorus]
e|---------------------------------------------------------------------------------|
B|---------------------------------------------------------------------------------|
G|---------------------------------------------------------------------------------|
D|------6--7-----9--9-x--9-----6--7-------9---9-x-9--------------------------------|
A|------6--7-----9--9-x--9-----6--7-------9---9-x-9--------------------------------|
E|------4--5-----7--7-x--7-----4--5-------7---7-x-7--------------------------------|
freezing cant move at all   freezing cant hear my call

e|-----------------------------------------|
B|-----------------------------------------|
G|-----------------------------------------|
D|--4--5----7-7-x-7-------6--7---9-9--x-9--|
A|--4--5----7-7-x-7-------6--7---9-9--x-9--|
E|--2--3----5-5-x-5-------4--5---7-7--x-7--|     i im dying to live  im am trapped under ice

[Interlude]
e|---------------------------------------------------------------------------------|
B|---------------------------------------------------------------------------------|
G|---------------------------------------------------------------------------------|
D|---7---9---7---------9------7------4---------------------------------------------|
A|---7---9---7---------9------7------4---------------------------------------------|
E|---5---7---5------0--7--0---5---0--2---------------------------------------------|

e|---------------------------------------------------------------------------------|
B|-----------------------2---------------------------------------------------------|
G|-----------------------2---------------------------------------------------------|
D|-----------------------2------------3-2------------------------------------------|
A|-----------------------0---3-0-2-0-------3-0-------------------------------------|
E|---0-0-0-0-0-0-3-0-2-0-----------------------------------------------------------|
pm....................

e|---------------------------------------------------------------------------------|
B|-------------------------2-------------------------------------------------------|
G|-------------------------2-------------------------------------------------------|
D|-------------------------2-------------------------------------------------------|
A|-------------------------0-------000000000000000000000000000---------------------|
E|---0-0-0-0-0-0-0-3-0-2-0---------------------------------------------------------|
   pm......................        ..............................

e|---------------------------------------------------------------------------------|
B|---------------------------------------------------------------------------------|
G|----9-9-9---7--7--7--------------------------------------------------------------|
D|----9-9-9---7--7--7---9--9-9-----------------------------------------------------|
A|----7-7-7---5--5--5---9--9-9-----------------------------------------------------|
E|----------------------7--7-7----3-2-0--------------------------------------------|

e|---------------------------------------------------------------------------------|
B|---------------------------------------------------------------------------------|
G|--9-9-9--7-7-7-------------------------------------------------------------------|
D|--9-9-9--7-7-7----7--7--7--------------------------------------------------------|
A|--7-7-7--5-5-5----7--7--7--------------------------------------------------------|
E|------------------5--5--5---3-2-0------------------------------------------------|

[Verse]
e|-------------------------------------------------------------------------------------|
B|-------------------------------------------------------------------------------------|
G|-------------------------------------------------------------------------------------|
D|-----------------------------------------------------------0-------------------------|
A|----------------------------------------------------3-2-0----------------------------|
E|--0h2-222222222220h2-2222222222220h2-2222220h2---------------------------------------|

[Chorus]
e|---------------------------------------------------------------------------------|
B|---------------------------------------------------------------------------------|
G|---------------------------------------------------------------------------------|
D|------6--7-----9--9-x--9-----6--7-------9---9-x-9--------------------------------|
A|------6--7-----9--9-x--9-----6--7-------9---9-x-9--------------------------------|
E|------4--5-----7--7-x--7-----4--5-------7---7-x-7--------------------------------|
freezing cant move at all   freezing cant hear my call

e|-----------------------------------------|
B|-----------------------------------------|
G|-----------------------------------------|
D|--4--5----7-7-x-7-------6--7---9-9--x-9--|
A|--4--5----7-7-x-7-------6--7---9-9--x-9--|
E|--2--3----5-5-x-5-------4--5---7-7--x-7--|     i im dying to live  im am trapped under ice

[Outro] (x3)
e|----------------------------------------------------------|
B|----------------------------------------------------------|
G|----------------------------------------------------------|
D|------------------------------------0-2-0-----------------|
A|------------------------------------0-2-0-----------------|
E|-0h2222222222222220h22222222222---------------------------|
pm............................
then endin changes



************************************

| h  Hammer-on
| x  Dead note

************************************
Suggest correction
comments
print report bad tab
13 comments total. Showing first comments.
+1 reply
hi72 372 Feb 03, 2003 07:00 PM

i would really want feedback on this
tab

+1 reply
fender2 10 Mar 06, 2003 07:00 PM

this is the best tab on this site tab the solos now please.

+1 reply
esp23 10 Apr 03, 2003 07:00 PM

Very good.

guest
You may want to rate the tab now too:
select rating
Wanna post a correction for this tab? Suggest correction