Oops, an error
Loading. Please wait.

Turn The Page Tab

version 2
version 2

Whole song

Interactive

29,703 views 27 this week
7 commentsread comments
1 2 3 4 5
accurate
x 5
add to favorites
launch autoscroll
font size
0
reset
how to read this tab
guitar tuner
Autoscroll
slow
fast
+/-
esc
set tempo
stop
Help us to improve Ultimate-Guitar.com Take our survey!
×

                                          Turn The Page                                             
                            Metallica (originally recorded by bob seger)
                                         a LooX pro tab

   intro:                                                                                                   
D#||------------------|--0~------0~-0~--0~-------|--------------10/-15\-|--14-----14\10~-------10/-|
A#||------------------|--0~------0~-0~0~0~-------|----------------------|--------------------------|
F#||------------------|--0~------0~---0~---------|----------------------|--------------------------|
C#||------------------|--2~------2~-----------2~-|----------------------|--------------------------|
G#||------------------|--2~------2~--------------|----------------------|--------------------------|
D#||------------------|--0~------0~-------0h3~---|----------------------|--------------------------|


                                                                         
---------------------------|-------------------|---------------0~-------|
--12~----------------------|-------------------|----------0~---0~-------|
----------12\-11---11\7\---|--9~---------------|----------0~------------|
---------------------------|--9~---------------|---------------------2~-|
---------------------------|-------------------|------------------------|
---------------------------|-------------------|--0~-------------0h3~---|


                                                                                       
------------0~-----0~--------|-------0~----2~-2~--2~-------|--------------------------|
--------3~-----3~--3~--3~----|---------3~--3~-3~3~3~3~-----|------------3~-2~-----2~2~|
-----2~-2~-----2~2~--2~------|-----2~---------------2~-----|----------2~---2~-2~--2~2~|
--0~---------------------0~2~|--0~---------------------0h2~|-------2~-----------------|
-----------------------------|-----------------------------|--0~----------------------|
-----------------------------|-----------------------------|--------------------------|


                                                                       verse:                          
------------------------|------------------------|--------------------|-------------------------|
------------------------|------------------------|--------------------|-------------------------|
--------------11/12-12\-|--11-----11\7~-------7/-|--9~-----------9\---|--9----9--9-9---9--9--9--|
------------------------|---------------------7/-|--9~-----------9\---|--9----9--9-9---9--9--9--|
------------------------|------------------------|--------------------|--7----7--7-7---7--7--7--|
------------------------|------------------------|--------------------|--0----0--0-0---0--0--0--|


                                                                                           
------------------------------|---------------------------|-------------------------------|
------------------------------|---------------------------|-------------------------------|
--9--9-9-9--9-9--9-9--9-9-9-7-|--7----7----7-x-7-7--7--7--|--7--7-7-7----7-x-7-7--7-7-7---|
--9--9-9-9--9-9--9-9--9-9-9-7-|--7----7----7-x-7-7--7--7--|--7--7-7-7----7-x-7-7--7-7-7---|
--7--7-7-7--7-7--7-7--7-7-7-5-|--5----5--0-5-x-5-5--5--5--|--5--5-5-5----5-x-5-5--5-5-5-0-|
--0--0-0-0--0-0--0-0--0-0-0---|--------------x------------|------------0---x--------------|


                                                   chorus:                                              
---------------------|----------------------------|------------------------|--------------------|
---------------------|----------------------------|------------------------|--------------------|
--2--------------2-2-|--2--2--2--2-2--2-2--2--12\-|--11~----11\7~----------|--9--------9\-------|
--2--------------2-2-|--2--2--2--2-2--2-2--2------|---------------------7/-|--9-----------------|
--0--------------0-0-|--0--0--0--0-0--0-0--0------|------------------------|--------------------|
---------------------|----------------------------|------------------------|--------------------|


                                                                                       
----------------------------|----------------------------|----------------------------|
----------------------------|----------------------------|----------------------------|
--7----7--x-7-x-7-7--7--7-x-|-----------x------------x-x-|--7----7--x-7-x-7-7--7--7-x-|
--7----7--x-7-x-7-7--7--7-x-|--2-----2--x-2--2-2--2--x-x-|--7----7--x-7-x-7-7--7--7-x-|
--5----5--x-5-x-5-5--5--5-x-|--2-----2--x-2--2-2--2--x-x-|--5----5--x-5-x-5-5--5--5-x-|
----------x---x-----------x-|--0--0--0--x-0--0-0--0--x-x-|----------x---x-----------x-|


                                                                                      
----------------------------|---------------------------|----------------------------|
----------------------------|---------------------------|---------3------------------|
-----------x------------7-7-|--7----7--x-7--7-7--7-7--7-|---------2------------------|
--2--2--2--x-2--2-2--2--7-7-|--7----7--x-7--7-7--7-7--7-|--7--7-7-2-7--7--7-7--7--7--|
--2--2--2--x-2--2-2--2--5-5-|--5----5--x-5--5-5--5-5--5-|--7--7-7-0-7--7--7-7--7--7--|
--0--0--0--x-0--0-0--0------|----------x----------------|--5--5-5---5--5--5-5--5--5--|


                                                                                 
-------------------------|-----------15\-14~----14\10~-|------------------------|
-------------------------|-----------------------------|----10/-----12~---12\---|
--5----5--5/6/7----7--7\-|--------12\------------------|------------------------|
--5----5--5/6/7----7--7\-|-----------------------------|------------------------|
--3----3--3/4/5----5--5\-|-----------------------------|------------------------|
-------------------------|--0--------------------------|------------------------|


 verse:                                                                                    
-------------------------|------------------------------|---------------------------|
-------------------------|------------------------------|---------------------------|
--9----9--9-9---9--9--9--|--9--9-9-9--9-9--9-9--9-9-9-7-|--7----7----7-x-7-7--7--7--|
--9----9--9-9---9--9--9--|--9--9-9-9--9-9--9-9--9-9-9-7-|--7----7----7-x-7-7--7--7--|
--7----7--7-7---7--7--7--|--7--7-7-7--7-7--7-7--7-7-7-5-|--5----5--0-5-x-5-5--5--5--|
--0----0--0-0---0--0--0--|--0--0-0-0--0-0--0-0--0-0-0---|--------------x------------|


                                                                                  
-------------------------------|---------------------|-----------------------15\-|
-------------------------------|---------------------|---------------------------|
--7--7-7-7----7-x-7-7--7-7-7---|--2--------------2-2-|--2----2--0-2--0-2--2------|
--7--7-7-7----7-x-7-7--7-7-7---|--2--------------2-2-|--2----2--0-2--0-2--2------|
--5--5-5-5----5-x-5-5--5-5-5-0-|--0--------------0-0-|--0----0----0----0--0------|
------------0---x--------------|---------------------|---------------------------|


                                                                                    
--14~---14/--15-14--14\-10---10/|--12~-------12----12\---|-------------------------|
--------------------------------|------------------------|-------------------------|
--------------------------------|------------------------|--9----9--9-9---9--9--9--|
--------------------------------|------------------------|--9----9--9-9---9--9--9--|
--------------------------------|------------------------|--7----7--7-7---7--7--7--|
--------------------------------|------------------------|--0----0--0-0---0--0--0--|


                                                                                           
------------------------------|---------------------------|-------------------------------|
------------------------------|---------------------------|-------------------------------|
--9--9-9-9--9-9--9-9--9-9-9-7-|--7----7----7-x-7-7--7--7--|--7--7-7-7----7-x-7-7--7-7-7---|
--9--9-9-9--9-9--9-9--9-9-9-7-|--7----7----7-x-7-7--7--7--|--7--7-7-7----7-x-7-7--7-7-7---|
--7--7-7-7--7-7--7-7--7-7-7-5-|--5----5--0-5-x-5-5--5--5--|--5--5-5-5----5-x-5-5--5-5-5-0-|
--0--0-0-0--0-0--0-0--0-0-0---|--------------x------------|------------0---x--------------|


            chorus:                                                               
---------------------|--------------------------|---------------------------|
---------------------|--------2---2----------8\-|--7---7/8--8--8----10--10/-|
--2--------------2-2-|--2-----2---2--2-2--2-----|---------------------------|
--2--------------2-2-|--2--2--2---2--2-2--2-----|---------------------------|
--0--------------0-0-|--0-----0---0--0-0--0-----|---------------------------|
---------------------|--------------------------|---------------------------|


                                                                                     
-------------------------|---------------------------|-----------------0------------|
--12~--------------------|---------------------------|-----------------0-----0------|
-------------------------|--7----7------7-7--7-7-7-7-|---------0----0--0-0---0------|
-------------------------|--7----7------7-7--7-7-7-7-|---------2----2--2-2-2-2------|
-------------------------|--5----5------5-5--5-5-5-5-|--2--x-2-2--x-2----2-2-2------|
------------12~----12\-0-|-----------5---------------|--0------0----0----0-0-0--0-0-|


                                                                                        
---------------------12\10---12~|----------12--12\-------|-----------------------------|
---------------------------1----|------------------------|-----------------------------|
--7--7--7----7--7-7-------------|--------------------0---|--7-----7----7--7-7-7-7--7-7-|
--7--7--7----7--7-7-------------|------------------------|--7--7--7--7-7--7-7-7-7--7-7-|
--5--5--5----5--5-5-------------|----------------------0-|--5-----5--5-5--5-5-5-5--5-5-|
-----------5--------------------|------------------------|-----------------------------|


                                                      
---------------------------|-------------------------|
---------------------------|-------------------------|
--2----2----2--2-2--2--0-0-|--5~---5--5\-7~---7--0-0-|
--2----2--x-2--2-2--2--0-0-|-------------------------|
--0----0----0--0-0--0------|-------------------------|
---------------------------|-------------------------|


                                                                                    
-----12-12----12\10----12-12\-12-12----12-12\-|--15--15\-17\--12-12\10----12--12\--|
--12-------12-------12--------12-12-12--------|------------------------12-12--12\--|
----------------------------------------------|------------------------------------|
----------------------------------------------|------------------------------------|
----------------------------------------------|------------------------------------|
----------------------------------------------|------------------------------------|


                                                                                     
---------------------------|----------------------------|---------------------------|
---------------------------|----------------------------|---------------------------|
---------------------------|----------x---------------7-|--7---7-7------------7---7-|
--2--2--2---2--2-2--2--2-2-|--2----2--x-2--2-2--2-2-2-7-|--7---7-7--x-x--x-x--7---7-|
--2--2--2---2--2-2--2--2-2-|--2----2--x-2--2-2--2-2-2-5-|--5---5-5------------5-----|
--0--0--0---0--0-0--0--0-0-|--0----0--x-0--0-0--0-0-0---|---------------------5-----|


                                                                          
-----------12---12\-------|-------------------|-------------------14/15\-|
-----------12---12\-------|-------------------|--------------------------|
--7--7-7-7/---------------|--2~---------------|--0-2~----------2\--------|
--7--7-7-7/---------------|-------------------|--------------------------|
--5--5-5-5/---------------|-------------------|--------------------------|
--------------------------|-------------------|--------------------------|


                                                          wait:                               
--14----14\-10~-----------|----------------------|-------------------|
----------------------10/-|--12~-----------12\---|-------------------|
--------------------------|----------------------|-------------------|
--------------------------|----------------------|--2----------------|
--------------------------|----------------------|--2----------------|
--------------------------|----------------------|--0----------------|
                                                                           
         staaaaart:                                                                  
--------------------|---------------------------|-------------------------|
--------------------|---------------------------|-------------------------|
--------------------|---------------------------|-------------------------|
----------------12--|--12---------12\7-----7--7\|--2--------2---------12--|
----------------9b--|--9----------9\-5h7-7-7--7\|--2------------------9b--|
--------------------|---------------------------|--0----3p0-----0---------|


                                                                                       
---------------------------|-----------------------------|----------------------------|
---------------------------|-----------------------------|----------------------------|
---------------------------|-----------------------------|----------------------------|
--12~----------------7-7-7\|--2---------2------------12--|--12~-------12\--7----7---7\|
--9~---------12\7----5h7-7\|--2----------------------9b--|--9~--------9\-0-5h7--5h7-7\|
-------------9\-5h7--------|--0---0-3p0-----0-3p0-0------|----------------------------|


                                                                                             
-----------------------------|---------------------------------|----------------------------|
-----------------------------|---------------------------------|----------------------------|
-----------------------------|---------------------------------|----------------------------|
--2--------2-------------12--|----------10h12-12----12----12\9-|--9----9--9-9-----------12--|
--2------------2---------9r--|--10~-----------9-----9h-10-9\-7-|--7----7--7-7---x-x-x-x-9b--|
--0----3p0-----0-0-0-0-0-----|--8~-----------------------------|----------------x-x-x-x-----|


   guitar solo:                                                                                 
------------------------|------------------------------|---------------------------|
------15r-----15---12b--|----------------12-12\--------|-----x-15r-----------------|
------------------------|----------------12-12\--------|-----x---------14r--14-14--|
------------------------|--14~-----12h14---------------|---------------------------|
------------------------|-----------------------12-----|---------------------------|
------------------------|------------------------------|---------------------------|


                                                                          
--------------------------------|----------------------------------------|
----------------12----------15--|--15--15~-15-15-12b-------------12------|
--12r-----9r--0-12h14-14-12-14b-|--14--14~-14-14-12b----12----11-12--14b-|
--------------0-----------------|--------------------14-12---------------|
--------------------------------|--------------------x-----14------------|
--------------------------------|----------------------------------------|


                                                                                      
-------------------------------------|-----------------------------------------------|
-------------------------------------|-----------------------------------------------|
--12--------12-14--14r---14\---------|--12-12\--------12-12--------------14-14r14p12-|
-----14~-14-----------------7/-12h14-|----------12h14-----------12h14-12-------------|
-------------------------------------|----------------------14-----------------------|
-------------------------------------|-----------------------------------------------|


                                                                                
------------------------------|--------------------|---------------------------|
-------------------15b-15b----|--15----------------|-------0--0----------------|
--------12-12--12-------------|--------------------|--9~--------9~--9--12--11\-|
--14~-------------------------|--------------------|---------------------------|
------------------------------|--------------------|---------------------------|
------------------------------|--------------------|---------------------------|


                                                                                  
------------------12\10----12~|---------12/20\-----------|-----------------------|
-------------7/12-------12----|----------------x-x-2--2--|-----------------------|
--7~---------7----------------|----------------x-x-2--2--|--7~-----------7\5---9~|
------------------------------|--------------------------|-------------------7---|
------------------------------|--------------------------|-----------------------|
------------------------------|--------------------------|-----------------------|


                                              just flow:                                  
---------------------|-----------------------|---------------------------------|
---------------------|-----------------------|---------------------------------|
------7----9----2/---|--5~-----5--5/7~----7\-|---------------------------------|
---------------------|-----------------------|--7h9--9-7h9-----7h9-----7h9-----|
---------------------|-----------------------|--7----7-7-------7-------7---7-7-|
---------------------|-----------------------|-------------0-0-----0-0---------|


                                                                                              
-------------------------------|------------------------------|------------------------------|
-------------------------------|------------------------------|------------------------------|
-------------------------------|--------------9--------9--9\7-|------------------------------|
--5--5-5-5--5-5-5/7-7-7-7--7-7-|--7h9----9----9--9-9---9--9\7-|--5--5-5-5--5-5-2--2-2-5--5-5-|
--3--3-3-3--3-3-3/5-5-5-5--5-5-|--7----7-7----7--7-7---7--7\5-|--3--3-3-3--3-3-3--3-3-3--3-3-|
-------------------------------|------------0--------0--------|------------------------------|


                                                                                  outro:         
----------------------------------|----------------------------------|----------------15\-|
----------------------------------|----------------------------------|--------------------|
----------------------------------|----------------------------------|--------------------|
--5h7-----5h7-----5h7-----5h7-----|--7h9-----7h9-----7h9-----7h9-----|--------------------|
--5---5-5-5---5-5-5---5-5-5---5-5-|--7-------7-------7-------7-------|--------------------|
----------------------------------|------0-0-----0-0-----0-0-----0-0-|--------------------|


                                                                                
--14----------10\---10/-|--12~-----12--12\-----15\-|--14~---------14\-10\------|
------------------------|----------12--12\---------|----------------------8/10/|
------------------------|--------------------------|---------------------------|
------------------------|--------------------------|---------------------------|
------------------------|--------------------------|---------------------------|
------------------------|--------------------------|---------------------------|


                                                                                
--12-------12/19\-----15\-|--14----14/17-17------17\-10/-|--12~----------------|
--12-------12/19\---------|------------------------------|---------------------|
--------------------------|------------------------------|---------------------|
--------------------------|------------------------------|------------------7\-|
--------------------------|------------------------------|---------------------|
--------------------------|------------------------------|---------------------|


                                                                                                  
----------------------|--------------------15-14-|------14\-10--------------|------|t|
----------------------|--------------------------|----------------10/-12\---|------|h|
--5~-----------5\-----|--7----7~-----7--7\-------|--------------------------|------|e|
------------------5\4-|--------------------------|--------------------------|------|e|
----------------------|--------------------------|--------------------------|---x--|n|
----------------------|--------------------------|--------------------------|------|d|



On a long and lonesome highway east of omaha
You can listen to the engines moaning out as one note song
You think about the woman or the girl you knew the night before

But your thoughts will soon be wandering the way they always do
When you're riding sixteen hours and there's nothing much to do
And you don't feel much like riding, you just wish the trip was through

Here I am - on the road again
There I am - up on the stage
Here I go - playing star again
There I go - turn the page

So you walk into this restaurant strung out from the road
And you feel the eyes upon you, as you're shaking off the cold
You pretend it doesn't bother you, but you just want to explode

Yeah, most times you can't hear 'em talk, other times you can
All the same old clichés, "is it woman? is it man?"
And you always seem outnumbered, you don't dare make a stand
Make your stand

Here I am - on the road again
There I am - up on the stage
Here I go - playing star again
There I go - turn the page

Oo-ooh, out there in the spotlight, you're a million miles away
Every ounce of energy you try to give away
As the sweat pours out your body like the music that you play, yeah

Later in the evening, you lie awake in bed
With the echoes of the amplifiers ringing in your head
You smoke the day's last cigarette, remembering what she said
What she said

He-ey

Yeah
And here I am - on the road again
There I am - up on a stage
Here I go - playing star again
There I go - turn the page
There I go - turn that page
There I go, yeah, yeah
There I go, yeah, yeah
There I go, yeah
There I go, yeah
There I go, oo-oo-ooh
There I go
And I'm gone


Suggest correction
comments
print report bad tab
7 comments total. Showing first comments.
-2 reply
fret_master21 10 wrote on January 11 2003, 12:00 am

isnt this is in standard tuning???

-2 reply
Xx_banx 10 wrote on May 24 2004, 12:00 am

^ yes it is.
i dont know what the fuck kinda tunin u got goin on there, but its not right.
peace

+2 reply
avalanche930 40 wrote on January 14 2005, 12:00 am

its tuned down half a step. same is Eb Ab Db Gb Gb eb which is the tuning its supposed to be in

guest
You may want to rate the tab now too:
select rating
Wanna post a correction for this tab? Suggest correction