Oops, an error
Loading. Please wait.

Until It Sleeps Bass Tab

version 2
version 2
14,581 views 48 this week
1 commentread comment
1 2 3 4 5
accurate
x 7
add to favorites
launch autoscroll
font size
0
reset
guitar tuner
Tab Pro tools
  • play this tab
  • loop segment
  • change instrument
  • show fretboard
  • metronome
×
Best way to learn
"Until It Sleeps"
Autoscroll
slow
fast
+/-
esc
set tempo
stop
Contributor
Difficulty
Tuning
novice
D# G# C# F# A# D#
-------------------------------------------------------------------------------
			    UNTIL IT SLEEPS - Metallica
-------------------------------------------------------------------------------

Tabbed By : Nilschpilsch

Tuning: D#G#C#F#

The slower sliding riff in until it sleeps is a great bass riff (timing is everything to
the right sound) and I couldn't find one on this site yet that sounded right to me so I
my own. Listen closer to the song to get the exact rhythm of the Chorus parts. I tabbed 
the way I play it but that doesn't mean that that is the way to play it. Feel free
experiment on the Chorus in this one.
Enjoy!

Intro/Verse 1

F#|-------------------------|------------------------|---------|
C#|----7~------7/10---9\(7)-|----7~------7/10--------|---------|
G#|--7----------------------|--7----------------8-7\-|-0~------|
D#|-------------------------|------------------------|---------|

F#|-------------------------|-----------|---------------------|
C#|----7~------7/10---9\(7)-|----7~-----|----7~------7/10-----|
G#|--7----------------------|--7-0~-----|-------------------8-|
D#|-------------------------|-----------|---------------------| 2x

Faster/Chorus 1

F#|-----------------------------------------------------------------------|
C#|-----------------------------------------------------------------------|
G#|-----------------------------------------------------------------------|
D#|-3-3-1-5---5-5-5-5-5-3---3---1---1-1-3-5---5-5-5-5-5-3---3-3-8-8-7-7-3-|

F#|---------------------------------------------------------------|
C#|---------------------------------------------------------------|
G#|---------------------------------------------------------------|
D#|-5---5-5-5-5-5-3---3-3-1-1-1-1-3-5---5-5-5-5-5-3---3-3-8-8-7-7-|

Slower/Verse 2

F#|-------------------------|------------------------|---------|
C#|----7~------7/10---9\(7)-|----7~------------------|---------|
G#|--7----------------------|--7---------7/10---8-7\-|-0~------|
D#|-------------------------|------------------------|---------|

F#|-------------------------|-----------|---------------------|
C#|----7~------7/10---9\(7)-|----7~-----|----7~------7/10-----|
G#|--7----------------------|--7-0~-----|-------------------8-|
D#|-------------------------|-----------|---------------------|

Faster/Chorus 2

F#|-----------------------------------------------------------------------|
C#|-----------------------------------------------------------------------|
G#|-----------------------------------------------------------------------|
D#|-3-3-1-5---5-5-5-5-5-3---3-3-1-1-1-1-3-5---5-5-5-5-5-3---3-3-8-8-7-7-3-|

F#|---------------------------------------------------------------|
C#|---------------------------------------------------------------|
G#|---------------------------------------------------------------|
D#|-5---5-5-5-5-5-3---3-3-1-1-1-1-3-5---5-5-5-5-5-3---3-3-8-8-7-7-|

Bridge 1

F#|----------------------|------------------------|
C#|----------------------|--5h7-------------------|
G#|--7-----7---7-----5-6-|----------7---7-----5-6-|
D#|----0-0---0---0-0-----|------0-0---0---0-0-----| 4x

Slower/Verse 3

F#|-------------------------|------------------------|---------|
C#|----7~------7/10---9\(7)-|----7~------------------|---------|
G#|--7----------------------|--7---------7/10---8-7\-|-0~------|
D#|-------------------------|------------------------|---------|

F#|-------------------------|-----------|---------------------|
C#|----7~------7/10---9\(7)-|----7~-----|----7~------7/10-----|
G#|--7----------------------|--7-0~-----|-------------------8-|
D#|-------------------------|-----------|---------------------|

Faster/Chorus 3

F#|-----------------------------------------------------------------------|
C#|-----------------------------------------------------------------------|
G#|-----------------------------------------------------------------------|
D#|-3-3-1-5---5-5-5-5-5-3---3-3-1-1-1-1-3-5---5-5-5-5-5-3---3-3-8-8-7-7-3-|

F#|---------------------------------------------------------------|
C#|---------------------------------------------------------------|
G#|---------------------------------------------------------------|
D#|-5---5-5-5-5-5-3---3-3-1-1-1-1-3-5---5-5-5-5-5-3---3-3-8-8-7-7-|

Bridge 2

F#|----------------------|------------------------|
C#|----------------------|--5h7-------------------|
G#|--7-----7---7-----5-6-|----------7---7-----5-6-|
D#|----0-0---0---0-0-----|------0-0---0---0-0-----| 4x


Slower/Solo

F#|-------------------------|-----------|
C#|----7~------7/10---9\(7)-|----7~-----|
G#|--7----------------------|--7-0~-----|
D#|-------------------------|-----------| 2x

F#|--------|
C#|--------|
G#|--0-3---|
D#|--------| 3x

F#|-------------------------|
C#|-------------------------|
G#|--333333333333-----------|(numbers aren't exact but you can experiment with it)
D#|--------------5555555555-|

Faster/Chorus 4

F#|-----------------------------------------------------------------------|
C#|.----------------------------------------------------------------------|
G#|.----------------------------------------------------------------------|
D#|-3-3-1-5---5-5-5-5-5-3---3-3-1-1-1-1-3-5---5-5-5-5-5-3---3-3-8-8-7-7-3-|

F#|---------------------------------------------------------------|
C#|--------------------------------------------------------------.|
G#|--------------------------------------------------------------.|
D#|-5---5-5-5-5-5-3---3-3-1-1-1-1-3-5---5-5-5-5-5-3---3-3-8-8-7-7-| 2x

Slower/Outro

F#|-------------------------|------------------------|---------|
C#|----7~------7/10---9\(7)-|----7~------7/10--------|---------|
G#|--7----------------------|--7----------------8-7\-|-0~------|
D#|-------------------------|------------------------|---------|

F#|-------------------------|------------------------|---------|
C#|----7~------7/10---9\(7)-|----7~------------------|---------|
G#|--7----------------------|--7---------7/10---8-7\-|-0~------|
D#|-------------------------|------------------------|---------|
comments
print report bad tab
1 comment total.
0 reply
stalker666 wrote on August 4 2013, 01:52 am

thanks for tab!

I want to post or [tab]
guest
You may want to rate the tab now too:
select rating
Please do not post tabs as comments. Select "correction" instead!