Oops, an error
Loading. Please wait.

Until It Sleeps Tab

version 2
version 2
92,057 views 222 this week
11 commentsread comments
1 2 3 4 5
accurate
x 23
add to favorites
launch autoscroll
font size
0
reset
how to read this tab
guitar tuner
Autoscroll
slow
fast
+/-
esc
set tempo
stop
Help us to improve Ultimate-Guitar.com Take our survey!
×
Author
Tuning
D# G# C# F# A# D#
Until it Sleeps
tune guitars to Half-Step Down


[Intro]

1)
eb------0-------------------0-|
Bb---------3--1--0----------1-|
Gb------------------2--0----2-|
Db----2--------------------2--|
Ab--0---------------------0---|
Eb----------------------------|
    clean strat/tele sound w/reverb
"Where do I take this pain of mine"


[Verse]

2a) James

eb------------------------------|
Bb------------------------------|
Gb------------------------------|
Db------------------------------|
Ab------7----7-7----5---------3-|
Eb------5----5-5----3---------1-|

2b) Kirk

eb--------------------------------------------|
Bb--------------------------------------------|
Gb------5----7-5----4--5--4---2-3-2-----------|
Db------7----7-7----5--5--5---3-3-3-----------|   guitar 2
Ab--0-0----0------0---------0-----------------|
Eb--------------------------------------------|
So tear me open pour me out



[Chorus]

3)
eb---------------------------------------------|
Bb---------------------------------------------|
Gb---------------------------------------------|
Db------5---7--5---4-4-9------5----7-5---4-4-9-|
Ab------7---7--7---5-6-7------7----7-7---5-6-7-|
Eb--0-0---0------0--------0-0----0-----0-------|
It holds you so hold me

4)
eb------0--------------------|
Bb---------3--1------------2-|
Gb-----------------0----2--2-|
Db----2------------0----3--2-|
Ab--0--------------2----3--0-|
Eb---------------3----1------|
clean after the chorus


************************************

| b  Bend

************************************
Suggest correction
What's this?
You can suggest a correction to this tab. Community and Mods will review your correction and vote to approve or reject it.
comments
print report bad tab
11 comments total. Showing first comments.
+1 reply
Señor 250 wrote on July 10 2004, 12:00 am

finally a perfect tab for this awesome song!!!!!!!!!!!!!!! if u happen to know the effects james and kirk use in this song please tell me

-1 reply
Señor 250 wrote on July 10 2004, 12:00 am

it should be tuned 1/2 step down

+6 reply
Señor 250 wrote on July 10 2004, 12:00 am

oh stupid me!!!! sorry i didnt notice that u had written it there. my bad

guest
You may want to rate the tab now too:
select rating
Please do not post tabs as comments. Select "correction" instead!