Oops, an error
Loading. Please wait.

Wasting My Hate Tab

version 3
version 3

Whole song

Interactive

27,298 views 24 this week
1 commentread comment
1 2 3 4 5
excellent!
x 11
add to favorites
launch autoscroll
font size
0
reset
how to read this tab
guitar tuner
Tab Pro tools
  • play this tab
  • loop segment
  • change instrument
  • show fretboard
  • metronome
×
Best way to learn
"Wasting My Hate"
Autoscroll
slow
fast
+/-
esc
set tempo
stop
Contributor
Band- Metallica
Song- Wasting My Hate

Gtr I (Eb Ab Db Gb Bb Eb) - 'James Hetfield - Rhythm clean electric'
Gtr II (Eb Ab Db Gb Bb Eb) - 'James Hetfield - Rhythm w/dist'
Gtr III (Eb Ab Db Gb Bb Eb) - 'Kirk Hammett - Rhythm w/dist'
Gtr IV (Eb Ab Db Gb Bb Eb) - 'Kirk Hammett - Rhythm clean electric'

Intro
  Q=148
 4/4
  Gtr I
                        ~~~~~~~~          ~
  |-3-|
  S S S   Q  Q  E E E a E   +Q   Q  E E E E
|-------|-----------------|-----------------|
|-------|-----------------|-----------------|
|-x-----|-----------------|-----------------|
|---x---|-----------------|-----------------|
|-----x-|-----------5-5h7-|-(7)--7--7p5---5-|
|-------|-0--0--5h7-------|-------------7---|
        |-Riff A

   ~~~            ~~~~~~~~                               ~
  +Q   Q  E E E a E   +Q   E E E E E E   +Q   Q  E E E a E
|-------------------|------------------|--------------------|
|-------------------|------------------|--------------------|
|-------------------|------------------|--------------------|
|-------------------|------------------|--------------------|
|-(5)--5------5-----|------------------|-------------5-5h7--|
|---------5h7---3h5-|-(5)--5p0-3h5-7-0-|-(0)--0--5h7--------|


   ~~~          ~~~~~~~~            ~~~~~~~~
  +Q   Q  E E E E   +Q   Q  E E E a E   +Q   E E E Q    E
|-----------------|-------------------|-------------------||
|-----------------|-------------------|-------------------||
|-----------------|-------------------|-------------------||
|-----------------|-------------------|-------------------||
|-(7)--7--7p5---5-|-(5)--5------5-----|-------------------||
|-------------7---|---------5h7---3h5-|-(5)--5p0-5-3b4--0-||
                           end Riff A-|

 Chorus
 Riff A (1st 6 bars)


                                                  Faster Q=168
                                                  Gtrs II, III
   ~~~            ~~~~~~~~                        PM
  +Q   Q  E E E a E   +Q   E E E E E E   H    +E  E E E
|-------------------|------------------|----------------|
|-------------------|------------------|----------------|
|-------------------|------------------|------------7-9-|
|-------------------|------------------|------------7-9-|
|-(5)--5------5-----|------------------|----------0-5-7-|
|---------5h7---3h5-|-(5)--5p0-3h5-7-0-|-0----(0)-------|


                                            Gtr III
                                               E5
   W                     W                     Q.    E H
                                               |
                                               /

                                            Gtr II
      PM        PM          PM        PM             PM    PM
  +E  E E E +E  E E E   +E  E E E +E  E E E    Q   E E E E E E
|---------------------|---------------------||-----------------|
|---------------------|---------------------||-----------------|
|-(9)---7-9-(9)---7-9-|-(9)---7-9-(9)---7-9-||-----------------|
|-(9)---7-9-(9)---7-9-|-(9)---7-9-(9)---7-9-||-----------------|
|-(7)-0-5-7-(7)-0-5-7-|-(7)-0-5-7-(7)-0-5-7-||-----7---7-6---5-|
|---------------------|---------------------||-0-----0-----0---|
                                             |-Riff B

  PM|   PM    PM    PM|   PM    PM            PM
  E E E E E E E E   E E E E E E E E   +E  E E E E E E E
|-----------------|-----------------|-------------------|
|-----------------|-----------------|-------------------|
|-----------------|-----------------|-------------------|
|-----------------|-----------------|-------------------|
|-----------------|---------------5-|-(5)s7-7---5s7-7---|
|-0-0-7-7-7-6-0-5-|-5-5-5-0-5-4-0-3-|-(3)s5-5-0-3s5-5-0-|


  Gtr III
  E
   E  E Q   H         E E Q   H         E E Q   H          H        Q   E E
   |  |               | |               | |                               |
   o  /               / /               x x                               /

  Gtr II
      PM  PM    PM    PM|   PM    PM          PM    PM            PM
  +E  E E E E E E E   E E E E E E E E   E E E E E E E E   +E  E E E E E E E
|-------------------|-----------------|-----------------|-------------------||
|-------------------|-----------------|-----------------|-------------------||
|-------------------|-----------------|-----------------|-------------------||
|-------------------|-----------------|-x-x-------------|-------------------||
|-------7---7-6---5-|-----------------|-x-x-----------5-|-(5)s7-7---5s7-7---||
|-(0)-0---0-----0---|-0-0-7-7-7-6-0-5-|-x-x-5-0-5-4-0-3-|-(3)s5-5-0-3s5-5-0-||
                                                                 end Riff B-|

    Gtrs II, III
        PM  PM    PM    PM|   PM    PM    PM|   PM    PM
    +E  E E E E E E E   E E E E E E E E   E E E E E E E E
||--------------------|-----------------|-----------------|
||o-------------------|-----------------|-----------------|
||--------------------|-----------------|-----------------|
||--------------------|-----------------|-----------------|
||o-------7---7-6---5-|-----------------|---------------5-|
||--(0)-0---0-----0---|-0-0-7-7-7-6-0-5-|-5-5-5-0-5-4-0-3-|


  1.                    2.
          PM                    PM
  +E  E E E E E E E      E  E E E E E E E
|--------------------||-------------------||
|-------------------o||-------------------||
|--------------------||-------------------||
|--------------------||-------------------||
|-(5)s7-7---5s7-7---o||-(5)s7-7---5s7-7---||
|-(3)s5-5-0-3s5-5-0--||-(3)s5-5-0-3s5-5-0-||


 Verse 1
  Gtrs II, III
|-Rhy Fig 1 (Rhythm slashes)
  E5             F5              E5
  q  q  q  E E   E E q  q  E E   q  q  q  E E
  |  |  |  | |   | | |  |  | |   |  |  |  | |
  /  /  /  / /   / / /  /  / /   /  /  /  / /
|--------------|---------------|--------------|


  F5              E5             F5       A D5E5
  E E q  q  E E   q  q  q  E E   E E q  E E E E
  | | |  |  | |   |  |  |  | |   | | |  | | | |
  / / /  /  / /   /  /  /  / /   / / /  / o / /
|---------------|--------------|----------------|


     A D5E5   A D5E5     A D5E5   A D5E5
  +E E E E +E E E E   +E E E E +E E E E
   | | | |  | | | |    | | | |  | | | |
   / o / /  / o / /    / o / /  / o / /
|-------------------|-------------------|


  E5                F5                D5
  Gtr II
  q   q   q   E E   E E q   q   E E   q   q   q   E E
  |   |   |   | |   | | |   |   | |   |   |   |   | |
  /   /   /   / /   / / /   /   / /   /   /   /   / /

  Gtr IV
  E E E E E E E E   E E E E E E E E   E E E E E E E E
|-----------------|-----------------|-----------------|
|-----------------|-----------------|-----------------|
|-----------------|-----------------|-----------------|
|-----------------|-----------------|-0-0-0-0-0-0-0-0-|
|-----------------|-----------------|-----------------|
|-0-0-0-0-0-0-0-0-|-1-1-1-1-1-1-1-1-|-----------------|
|-Riff C

  A5                E5                F5        A D5E5
  q   q   q   E E   q   q   q   E E   E E q   E E E E
  |   |   |   | |   |   |   |   | |   | | |   | | | |
  /   /   /   / /   /   /   /   / /   / / /   / o / /

  E E E E E E E E   E E E E E E E E   E E E E E E Q
|-----------------|-----------------|-----------------|
|-----------------|-----------------|-----------------|
|-----------------|-----------------|-----------------|
|-----------------|-----------------|-----------------|
|-0-0-0-0-0-0-0-0-|-----------------|-----------------|
|-----------------|-0-0-0-0-0-0-0-0-|-1-1-1-1-1-------|
                                           end Riff C-|

      end Rhy Fig 1-|
     A D5E5   A D5E5     A D5E5   A D5E5
  +E E E E +E E E E   +E E E E +E E E E
   | | | |  | | | |    | | | |  | | | |
   / o / /  / o / /    / o / /  / o / /
|-------------------|-------------------|


  Gtrs II, III
 Riff A (1st 4 bars)


 Chorus - Half Time Feel
  $
  $$
                  ~~~~~~~~          ~~~~~~~~            ~~~~~~~~
  +Q   Q  E E E a E   +Q   Q  E E E E   +Q   Q  E E E a E   +Q   E E E E E E
|-------------------|-----------------|-------------------|--------------------|
|-------------------|-----------------|-------------------|--------------------|
|-------------------|-----------------|-------------------|--------------------|
|-------------------|-----------------|-------------------|--------------------|
|-------------5-5h7-|-(7)--7--7p5---5-|-(5)--5------5-----|--------------------|
|-(0)--0--5h7-------|-------------7---|---------5h7---3h5-|-(5)--5p0-3h5-7-0---|
|-Riff A1                                                          end Riff A1-|

w/Riff A1
  Gtr III
                  ~~~~~~~~                  ~~~
  +Q   Q  E E E a E   +Q   E E     +E   E E E
|-------------------|-------------------------|
|-------------------|-------------------------|
|-------------------|-------------------------|
|-------------------|-------------------------|
|-------------5-5h7-|-(7)--7-9b10==(9)r-9-7-9-|
|-(0)--0--5h7-------|-------------------------|


 ~~~~~            ~~~~~~~~
  +Q   Q  Q   E   E   +Q   E E E E E E
|-------------------|--------------------|
|-------------------|--------------------|
|-------------------|--------------------|
|-------------------|--------------------|
|-(9)--9--9---9---7-|-(7)--7-7-5h7-7-----|
|-------------------|----------------0---|


                                To Coda
                         To Double Coda
  Gtrs II, III
  +W           +W           +W           +W  End Half Time Feel
|------------|------------|------------|--------||
|------------|------------|------------|--------||
|------------|------------|------------|--------||
|------------|------------|------------|--------||
|------------|------------|------------|--------||
|-(0)--------|-(0)--------|-(0)--------|-(0)----||


Riff B


 Verse 2
Rhy Fig 1

|--------------|---------------|--------------|



|---------------|--------------|----------------|



                    Gtr III              |-w/Riff C
                          PM        PM|       PM----------|
   W                   E  E E E +E  E E E   E E E E E E E E
|-------------------|---------------------|-----------------|
|-------------------|---------------------|-----------------|
|-------------------|-(9)---7-9-(9)-------|-----------------|
|-------------------|-(9)---7-9-(9)-------|-----------------|
|-------------------|-(7)-0-5-7-(7)-0-0-3-|-2-2-2-2-2-2-2-2-|
|-------------------|-------------------1-|-0-0-0-0-0-0-0-0-|



  PM----------------------------------------------|
  E E E E E E E E   E E E E E E E E   E E E E E E E E
|-----------------|-----------------|-----------------|
|-----------------|-----------------|-----------------|
|-----------------|-7-7-7-7-7-7-7-7-|-----------------|
|-----------------|-7-7-7-7-7-7-7-7-|-7-7-7-7-7-7-7---|
|-2-2-2-2-2-2-2-2-|-5-5-5-5-5-5-5-5-|-7-7-7-7-7-7-7-3-|
|-0-0-0-0-0-0-0-0-|-----------------|-5-5-5-5-5-5-5-1-|



    PM------------------------|
  E E E E E E E E   E E E E E E E E
|-----------------|-----------------|
|-----------------|-----------------|
|-----------------|-------------7-9-|
|-----------------|-------------7-9-|
|-2-2-2-2-2-2-2-2-|-2-2-2-2-2-0-5-7-|
|-0-0-0-0-0-0-0-0-|-0-0-0-0-0-------|


      A D5E5    A D5E5          D5E5
  +E  E E E +E  E E E   +E    E E E +Q   Q
   |  | | |  |  | | |    |    | | |  |   |
   /  o / /  /  o / /    /    / / /  /   /

      PM        PM
  +E  E E E +E  E E E   +E  a E E E  E E E E
|---------------------|----------------------|
|---------------------|----------------------|
|-(9)---7-9-(9)---7-9-|-(9)------------------|
|-(9)---7-9-(9)---7-9-|-(9)------------------|
|-(7)-0-5-7-(7)-0-5-7-|-(7)-5h7-7-7--5-------|
|---------------------|----------------7-5-0-|


Riff A (1st 4 bars) -> D.S. al Coda



  &
  Gtrs II, III
  +W           W          +W           +W
|------------|----------|------------|--------|
|------------|----------|------------|--------|
|------------|----------|------------|--------|
|------------|----------|------------|--------|
|------------|----------|------------|--------|
|-(0)--------|-0--------|-(0)--------|-(0)----|


end Half time Feel
                 PM    PM    PM      PM    PM
  +W             E E E E E E E E   E E E E E E  E  E  4x
|------------||------------------|--------------------||
|------------||o-----------------|-------------------o||
|------------||----7-9---7-9---7-|-9---7-9-----10-10--||
|------------||----7-9---7-9---7-|-9---7-9-----10-10--||
|------------||o-0-5-7-0-5-7-0-5-|-7-0-5-7-0-0--8--8-o||
|-(0)--------||------------------|--------------------||


 Verse 3
w/Rhy Fig 1 (1st 14 bars)
  Gtr III
    PM--------------------------|       PM----------|
  E E E E E E E E   E E E E E E E E   E E E E E E E E
|-----------------|-----------------|-----------------|
|-----------------|-----------------|-----------------|
|-9---------------|-----------------|-----------------|
|-9---------------|-----------------|-----------------|
|-7-2-2-2-2-2-2-2-|-2-2-2-2-2-2-2-3-|-2-2-2-2-2-2-2-2-|
|---0-0-0-0-0-0-0-|-0-0-0-0-0-0-0-1-|-0-0-0-0-0-0-0-0-|


  PM----------|       PM------------------------|
  E E E E E E E E   E E E E E E E E   E E E E E E E E
|-----------------|-----------------|-----------------|
|-----------------|-----------------|-----------------|
|-----------------|-----------------|-------------7-9-|
|-----------------|-----------------|-------------7-9-|
|-2-2-2-2-2-2-2-3-|-2-2-2-2-2-2-2-2-|-2-2-2-2-2-0-5-7-|
|-0-0-0-0-0-0-0-1-|-0-0-0-0-0-0-0-0-|-0-0-0-0-0-------|


                                            |-w/Riff C
      PM        PM          PM        PM      PM------------|
  +E  E E E +E  E E E   +E  E E E +E  E E E   E E E E E E E E
|---------------------|---------------------|-----------------|
|---------------------|---------------------|-----------------|
|-(9)---7-9-(9)---7-9-|-(9)---7-9-(9)---7-9-|-----------------|
|-(9)---7-9-(9)---7-9-|-(9)---7-9-(9)---7-9-|-----------------|
|-(7)-0-5-7-(7)-0-5-7-|-(7)-0-5-7-(7)-0-5-7-|-2-2-2-2-2-2-2-2-|
|---------------------|---------------------|-0-0-0-0-0-0-0-0-|



  PM----------------------------------------------|
  E E E E E E E E   E E E E E E E E   E E E E E E E E
|-----------------|-----------------|-----------------|
|-----------------|-----------------|-----------------|
|-----------------|-7-7-7-7-7-7-7-7-|-----------------|
|-----------------|-7-7-7-7-7-7-7-7-|-7-7-7-7-7-7-7---|
|-2-2-2-2-2-2-2-2-|-5-5-5-5-5-5-5-5-|-7-7-7-7-7-7-7-3-|
|-0-0-0-0-0-0-0-0-|-----------------|-5-5-5-5-5-5-5-1-|



    PM------------------------|
  E E E E E E E E   E E E E E E E E
|-----------------|-----------------|
|-----------------|-----------------|
|-----------------|-------------7-9-|
|-----------------|-------------7-9-|
|-2-2-2-2-2-2-2-2-|-2-2-2-2-2-0-5-7-|
|-0-0-0-0-0-0-0-0-|-0-0-0-0-0-------|


  Gtr III
      PM
  +E  E E E +E   E  E  E    E     E  E  E  E  E    E  E
|------------------------|------------------------------|
|------------------------|------------------------------|
|-(9)---7-9-(9)-12-12-12-|-12----12-12-12-12-12---12-12-|
|-(9)---7-9-(9)-12-12-12-|-12----12-12-12-12-12---12-12-|
|-(7)-0-5-7-(7)----------|------------------------------|
|------------------------|------------------------------|
|
| Gtr II
|     PM         PM
| +E  E E E +E   E  E  E   +E  a  E  E  E  E  E a  E  E
|------------------------|------------------------------|
|------------------------|------------------------------|
|-(9)---7-9-(9)-----7--9-|-(9)--------------------------|
|-(9)---7-9-(9)-----7--9-|-(9)--------------------------|
|-(7)-0-5-7-(7)--0--5--7-|-(7)-5h=7--7--7--7--7-5h=7--7-|
|------------------------|------------------------------|


Riff A (1st 4 bars) -> D.S.S. al Dbl. Coda



 Outro
  &&
  Gtrs II, III
  +H      H       W          +W
|---------------|----------|--------|
|---------------|----------|--------|
|---------------|----------|--------|
|---------------|----------|--------|
|--------15\----|----------|--------|
|-(0)----15\----|-0--------|-(0)----|


                           ~~      PM    PM    PM      PM    PM
  +W           +E    Q.    Q  Q    E E E E E E E E   E E E E E E  E  E
|------------|-------------------|-----------------|-------------------*|
|------------|-------------------|-----------------|-------------------*|
|------------|-------------------|---7-9---7-9---7-|-9---7-9-----10-10-*|
|------------|-------------------|---7-9---7-9---7-|-9---7-9-----10-10-*|
|------------|-------------------|-0-5-7-0-5-7-0-5-|-7-0-5-7-0-0--8--8-*|
|-(0)--------|-(0)-(10)s==24-----|-----------------|-------------------*|
comments
print report bad tab
1 comment total.
+1 reply
doomsayer22 wrote on January 30 2012, 06:47 am

wow how did this get 5 stars????

I want to post or [tab]
guest
You may want to rate the tab now too:
select rating
Please do not post tabs as comments. Select "correction" instead!