Oops, an error
Loading. Please wait.

Wasting My Hate Bass Tab

version 4
version 4

Whole song

Interactive

178 views 1 this week
no commentswrite comment
1 2 3 4 5
3 more votes to show rating
add to favorites
launch autoscroll
font size
0
reset
guitar tuner
Autoscroll
slow
fast
+/-
esc
set tempo
stop
Help us to improve Ultimate-Guitar.com Take our survey!
×
Difficulty
novice
-----------------------------------------------------------------------------|
-----------------------------------------------------------------------------|
-----7-7-6-5-----------------------------------------------------------------|
-0-0---------0-7-7-6-5-0-5-5-4-3-5-5-3-5-5-----------------------------------|
(X2)

-----------------------------------------------------------------------------|
-----------------------------------------------------------------------------|
----------------------------------------------5-7---5-7---5-7---5-7---5------|
7-7-7-7-8-8-8-8-7-7-7-7-8-8-8-8-7-7-7-8-8-8-0-----0-----0-----0-----0--------|
(X2)

------------------------------------------------------------------------------|
------------------------------------------------------------------------------|
----------5-7-7-7-5---------------------------------5-7-7-7-5-----------------|
--0-0-5-7-----------7-5-5-5-5-4-3-5-5-3-5-5-0-0-5-7-----------7-5-5-5-5-4-3-5-|

-----------------------------------------------------------------------------|
-----------------------------------------------------------------------------|
-----------------------------------------------------------------------------|
-3-5-5-3-5-5-----------------------------------------------------------------|
(X4)

-----------------------------------------------------------------------------|
-----------------------------------------------------------------------------|
-----7-7-6-5-----------------------------------------------------------------|
-0-0---------0-7-7-6-5-0-5-5-4-3-5-5-3-5-5-----------------------------------|
(X2)

------------------------------------------------------------------------------|
------------------------------------------------------------------------------|
----------5-7-7-7-5---------------------------------5-7-7-7-5-----------------|
--0-0-5-7-----------7-5-5-5-5-4-3-5-5-3-5-5-0-0-5-7-----------7-5-5-5-5-4-3-5-|

-----------------------------------------------------------------------------|
-----------------------------------------------------------------------------|
-----------------------------------------------------------------------------|
-3-5-5-3-5-5-----------------------------------------------------------------|
(X4)

-----------------------------------------------------------------------------|
-----------------------------------------------------------------------------|
---5-7---5-7---5-7---5-7---5-7---5-7---5-7---5-7---5-7---5-7-----------------|
-0-----0-----0-----0-----0-----0-----0-----0-----0-----0---------------------|

-----------------------------------------------------------------------------|
-----------------------------------------------------------------------------|
----------------------------------------------5-7---5-7---5-7---5-7---5------|
7-7-7-7-8-8-8-8-7-7-7-7-8-8-8-8-7-7-7-8-8-8-0-----0-----0-----0-----0--------|
(X2)

------------------------------------------------------------------------------|
------------------------------------------------------------------------------|
----------5-7-7-7-5---------------------------------5-7-7-7-5-----------------|
--0-0-5-7-----------7-5-5-5-5-4-3-5-5-3-5-5-0-0-5-7-----------7-5-5-5-5-4-3-5-|

-----------------------------------------------------------------------------|
-----------------------------------------------------------------------------|
-----------------------------------------------------------------------------|
-3-5-5-3-5-5-----------------------------------------------------------------|
(X4)

------------------------------------------------------------------------------|
------------------------------------------------------------------------------|
--5-7---5-7---5-7---5-7-------------------------------------------------------|
-0----0-----0-----0-----0-----------------------------------------------------| HATE!

(this song is actually called "Wasting My Hate")
Suggest correction
Give kudos to tab author, rate the tab!
1 2 3 4 5
comments
print report bad tab
guest
You may want to rate the tab now too:
select rating
Wanna post a correction for this tab? Suggest correction