Oops, an error
Loading. Please wait.
We have an official Wasting My Hate tab made by UG professional guitarists. Check out the tab »
×
475 views 3 this week
no commentswrite comment
1 2 3 4 5
3 more votes to show rating
add to favorites
×
Save as Personal and add changes to this tab that will be seen only by you. Learn more ›
×
You can save this tab as Personal to edit and correct it or add notes. All changes will be seen only by you. Learn more »
launch autoscroll
font size
0
reset
how to read this tab
guitar tuner
edit
Autoscroll
slow
fast
+/-
esc
set tempo
stop
Author
Difficulty
-------------------------------------------------------------------------------
                             WASTING MY HATE - METALLICA
-------------------------------------------------------------------------------
Tabbed by: Patrik Černjul
E-mail: patrick.cernjul@gmail.com

Tuning: Standard Tuning

Hey guys, this is my first song that I tried to tab. This how I play this 
song and I think it's correct. Wasting My Hate is one of my favourite songs 
from Metallica. It's very simple and easy to remember and play. A very good 
song, even without a solo.


INTRO
e|-------------------------------------------------------|
B|-------------------------------------------------------|
G|-------------------------------------------------------|
D|-x-----------------------------------------------------|
A|-x-----------5-5h7--7-7p5---5--5-----7-----------------|
E|-x-0-0--5h7---------------7------5h7---3h5--5p0-3-5-7--|

e|-------------------------------------------------|
B|-------------------------------------------------|
G|-------------------------------------------------|
D|-------------------------------------------------|
A|---------5-5h7--7-7p5---5--5-----7---------------|
E|-0-0-5h7--------------7------5h7---3h5--5p0-5-3--|

e|-----------------------------------------------------|
B|-----------------------------------------------------|
G|-----------------------------------------------------| 
D|-----------------------------------------------------|
A|-----------5-5h7--7-7p5---5--5-----7-----------------|
E|--0-0--5h7--------------7------5h7---3h5--5p0-3-5-7--|

         Good day. How do? And I send a smile to you.

Below is the second part of the riff that only happens just this one time
(it just has another pick of the E string at the end nothing special.

e|-------------------------------------------------------|
B|-------------------------------------------------------|
G|-------------------------------------------------------| 
D|-------------------------------------------------------|
A|-----------5-5h7--7-7p5---5--5-----7-------------------|
E|--0-0--5h7--------------7------5h7---3h5--5p0-3-5-7-0--|
         
         Don’t waste...               ...my hate on you.

Play the FIRST FILL once.

FIRST FILL
e|--------------------------------------|
B|--------------------------------------|
G|--------------------------------------|
D|-----5/7----5/7----5/7----5/7----5/7--|
A|--0--3/5-0--3/5-0--3/5-0--3/5-0--3/5--|
E|--------------------------------------|

FIRST RIFF
e|-----------------------------------------------------------------|
B|-----------------------------------------------------------------|
G|-----------------------------------------------------------------| 
D|--------------------------------------------------5/7--7-5/7--7--|
A|------7---7--6--5---------------------------------3/5--5-3/5--5--|
E|--0-0---0---------0-0-7-0-7--6--5-0-0--5--0--5--4----------------|

Repeat the FIRST RIFF four times.So how to play the next part. You play
the SECOND RIFF three times, then the SECOND FILL once, then the THIRD RIFF
once and right after it SECOND RIFF once, then the SECOND FILL AGAIN.

One more thing, if you'd like to play it like James does, do upstrokes on the
SECOND AND THIRD RIFF, it makes it sound kinda better in my opinion.

SECOND RIFF
e|----------------------------------|
B|----------------------------------|
G|--9--9--9--9-9--10--10--10-10-10--| 
D|--9--9--9--9-9--10--10--10-10-10--|
A|--7--7--7--7-7---8---8---8--8--8--|
E|----------------------------------|
          ...Ain’t gonna waste my hate
SECOND FILL
e|--------------------------------------|
B|--------------------------------------|
G|--------------------------------------|
D|-----7/9----7/9----7/9----7/9----7/9--|
A|--0--5/7-0--5/7-0--5/7-0--5/7-0--5/7--|
E|--------------------------------------|

THIRD RIFF
e|---------------------------------------------------------------|
B|---------------------------------------------------------------|
G|--9--9--9--9-9--10--10--10--10-10--7--7--7--7-7----------------|
D|--9--9--9--9-9--10--10--10--10-10--7--7--7--7-7--7--7--7--7-7--|
A|--7--7--7--7-7---8---8---8---8--8--5--5--5--5-5--7--7--7--7-7--|
E|-------------------------------------------------5--5--5--5-5--|

           Ain’t gonna give no more             ...to help you score


CHORUS
e|-----------------------------------------------------|
B|-----------------------------------------------------|
G|-----------------------------------------------------| 
D|-----------------------------------------------------|
A|-----------5-5h7--7-7p5---5--5-----7-----------------|
E|--0-0--5h7--------------7------5h7---3h5--5p0-3-5-7--|

You play that three times and then play it again and right after 
you finish it hit the THIRD FILL(which is an E power chord).

THIRD FILL
e|-----|
B|-----|
G|-----|
D|-----|
A|--2--|
E|--0--|

Then play FOURTH FILL.

FOURTH FILL
e|---------------------------------|
B|---------------------------------|
G|-----------------------10-10-10--|
D|--5/7--5/7--5/7--5/7---10-10-10--|
A|--7/9--7/9--7/9--7/9----9--9--9--|
E|---------------------------------|

This pretty much sums up everything you need to know how to play to play
this song, it just has to be put into right order, I'll do it for ya.

INTRO 1X
FIRST FILL X1
FIRST RIFF X4
SECOND RIFF X3
SECOND FILL X1
THIRD RIFF X1
SECOND RIFF X1
SECOND FILL X1
CHORUS X3
THIRD FILL X1
FIRST RIFF X2
SECOND RIFF X3
SECOND FILL X1
THIRD RIFF X1
SECOND RIFF X1
SECOND FILL X1
CHORUS X3
THIRD FILL X2
FOURTH FILL X4
SECOND RIFF X3
SECOND FILL X1
THIRD RIFF X1
SECOND RIFF X1
SECOND FILL X1
CHORUS X3
THIRD FILL X2
FOURTH FILL X1



************************************

| /   slide up
| \   slide down
| h   hammer-on
| p   pull-off
| ~   vibrato
| +   harmonic
| x   Mute note
| b   Bend
| pb  Pre-bend
| br  Bend release
| pbr Pre-bend release
| brb Bend release bend

************************************

            
            
Suggest correction
Creating personal tab
Creating personal tab
You can edit any tab online and save it as your Personal.

You can edit, replace or remove any tab part or add personal notes – all changes will be seen only by you.

Personal tabs can be accessed anytime from any device, even offline.
Learn more »
Give kudos to tab author, rate the tab!
1 2 3 4 5
comments
print report bad tab
guest
You may want to rate the tab now too:
select rating
Wanna post a correction for this tab? Suggest correction