Oops, an error
Loading. Please wait.

Welcome Home Sanitarium Tab

version 1
version 1
141,698 views 87 this week
5 commentsread comments
1 2 3 4 5
excellent!
x 24
add to favorites
launch autoscroll
font size
0
reset
how to read this tab
guitar tuner
Tab Pro tools
  • play this tab
  • loop segment
  • change instrument
  • show fretboard
  • metronome
×
Best way to learn
"Welcome Home Sanitarium"
Autoscroll
slow
fast
+/-
esc
set tempo
stop
Contributor
                        Welcome Home (Sanitarium)
                                Metallica


                               Intro  Solo
 
                       Tabbed by: A3r0sm1th (Brian)
 
                      Tunning: Standard (E A D G B e)

 

                       Rhythm Figure Played Behind Solo

              e|----------------|------------------|------------|
              B|----------------|------------------|------------|
              G|------0-------0-|------0-----------|------------|
              D|----4-------5---|----7-------0-----|--0-----0---|
              A|--2-------3-----|--5-------4-------|2-----------|
              E|0-------0-------|0-------5-----5s3-|----3s5-----|


                              ~~~~~~~~~~~~~~~~~~~~


         e|--------------------------------------------------15--17-17~~|
         B|------------------------------------------15--17-------------|
         G|-------11--12-----------------12--14-/16---------------------|
         D|---------------14~~----14-14---------------------------------|
         A|-------------------------------------------------------------|
         E|--0-0--------------------------------------------------------|


             e|--15--15p14p12--12/14~--12/14--12------12-------------|
             B|-----------------------------------15------15--13--12~|
             G|------------------------------------------------------|
             D|------------------------------------------------------|
             A|------------------------------------------------------|
             E|------------------------------------------------------|


                     e|---------------------------------------|
                     B|--12h13p12-----------------------------|
                     G|------------14--12--11-----------------|
                     D|------------------------12------12/14~~|
                     A|----------------------------14---------|
                     E|---------------------------------------|


     e|--------19~--19---------------17---17-15-14---------------------------|
     B|-----17---------17---------15---------------17-15-14------------------|
     G|--16---------------16~--14---------------------------16-14-12b14--12~~|
     D|----------------------------------------------------------------------|
     A|----------------------------------------------------------------------|
     E|----------------------------------------------------------------------|

 
                          e|-----------12-10h12p10--8--7~~|
                          B|--------13--------------------|
                          G|-----14-----------------------|
                          D|--14--------------------------|
                          A|------------------------------|
                          E|------------------------------|


                          e|------------------------------|
                          B|------------------------------|
                          G|---------14-------12----------|
                          D|------11--------9---------11~~|
                          A|--/12--------10-------/12-----|
                          E|------------------------------|

               And this last bit will lead you straight into the verse!  

                               Please rate and Comment!
comments
print report bad tab
5 comments total. Showing first comments.
+2 reply
0GibsonLesPaul0 wrote on April 7 2009, 04:55 pm

It's very accurate. I love the way you centered it too!

+2 reply
A3r0sm1th wrote on April 7 2009, 05:19 pm

Thanks bro I appreciate it!

+2 reply
Liam Paul wrote on April 17 2009, 09:14 pm

Works.

I want to post or [tab]
guest
You may want to rate the tab now too:
select rating
Please do not post tabs as comments. Select "correction" instead!