Oops, an error
Loading. Please wait.

Welcome Home Sanitarium Tab

version 2
version 2
7,172 views 9 this week
2 commentsread comments
1 2 3 4 5
x 8
add to favorites
launch autoscroll
font size
0
reset
how to read this tab
guitar tuner
Autoscroll
slow
fast
+/-
esc
set tempo
stop
Help us to improve Ultimate-Guitar.com Take our survey!
×
Author
Difficulty
intermediate
Submitted by: josegonzo
Tuning: Standard (EADGBe)
Intro:
           (Natural Harmonics)
e----------12-----|
B-------------12--|
G-----------------|
D-----------------|
A-----------------|
E--0--------------|

e--5-3h5p3----------12-----|
B----------------------12--|
G--------------------------|
D--------------------------|
A--------------------------|
E-----------0--------------|

e-2-2-3-------12------------12-----------12------------12-------|
B---0-0----------12------------12-----------12------------12----|
G------------------------------------------------------------12-|
D---------------------------------------------------------------|
A---------------------------------------------------------------|
E----------------------0-------------0-------------0------------|

Verse Riff:
e-----------------------------------------------------|
B-----------------------------------------------------|
G--------0--------0--------0--------------------------|
D------4--------5--------7---------0------0------0----|
A----2--------3--------5---------4------2-------------|
E--0--------0--------0---------5------3------2/5------|
Suggest correction
comments
print report bad tab
2 comments total.
0 reply
HH_Emo_666 242 Dec 13, 2011 05:06 AM

Why would you even post this? Your missing the the solo, the slides on the rhythm guitar for the "verse" part.

0 reply
teo.rockgirl 154 Sep 16, 2012 12:48 PM



------12-------3-3-2-0----12-------2-2-0----12------
----------12------------------12-----0----------12--
----------------------------------------------------
----------------------------------------------------
----------------------------------------------------
-0-------------------0-----------------0------------

----12--------12--------12------------------------
------12--------12--------12----------------------
----------------------------12--------------------
--------------------------------------------------
--------------------------------------------------
-0---------0---------0----------------------------

G I (solo)...

G II :

---------------------------------------------------- (until
---------------------------------------------------- the
----------0-----------0----------0------------------ solo
-------4-----------5----------7--------0-----0---0-- will be
----2-----------3----------5---------4-----2-------- finish)
-0----------0-----------0----------5-----3-----5----

Verse :

----------------------------------------------------
----------------------------------------------------
----------0-----------0----------0------------------
-------4-----------5----------7--------0-----0---0--
----2-----------3----------5---------4-----2--------
-0----------0-----------0----------5-----3-----5----

guest
You may want to rate the tab now too:
select rating
Wanna post a correction for this tab? Suggest correction