Oops, an error
Loading. Please wait.
We have an official Welcome Home Sanitarium tab made by UG professional guitarists. Check out the tab »
×

Welcome Home Sanitarium Bass

version 3
version 3

Whole song

  • Based on the bass master track: http://www.youtube.com/watch?v=zM__9eTiI4o.
42,562 views 33 this week
3 commentsread comments
1 2 3 4 5
x 22
add to favorites
×
Save as Personal and add changes to this tab that will be seen only by you. Learn more ›
×
You can save this tab as Personal to edit and correct it or add notes. All changes will be seen only by you. Learn more »
save as personal
new!
launch autoscroll
font size
0
reset
guitar tuner
backing track
0:00
0:00
Autoscroll
slow
fast
+/-
esc
set tempo
stop
Author
Tuning
[Intro]

G|-----7h9---------|
D|---------9-------|
A|-----------7-5h7-|
E|-0---------------|

G|---------------------------|
D|---------------------------|
A|------3--3-5--5------------|
E|-0--0-----------5\--3-3-5\-|

G|------------------------------|
D|------------------------------|
A|------3--3-5------------------|
E|-0--0---------5-5-553-3-3-222-|

[Guitar Solo 1]

G|-----------------------------|
D|-----------------------------|
A|------3--3-5--5--------------|
E|-0--0-----------5--5-3--3-5\-|

G|------------------------------|
D|------------------------------|
A|------3--3-5--5---------------|
E|-0--0-----------5--5-3--3-2-2-|

G|-----------------------------|
D|-----------------------------|
A|------3--3-5--5--------------|
E|-0--0-----------5--5-3--3-5\-|

G|--------------------------------------|
D|--------------------------------------|
A|------3--323-5-3-2--------------------|
E|-0--0--------------3-5--5-5-3-333-222-|

[Verse 1]

G|-----------------------------|
D|-----------------------------|
A|------3--3-5--5--------------|
E|-0--0-----------5--5-3--3-5\-|

G|------------------------------|
D|------------------------------|
A|------3--3-5--5---------------|
E|-0--0-----------5--5-3--3-222-|

G|------------------------------------|
D|------------------------------------|
A|-------3--333-5-3-2-----------------|
E|--0--0--------------3-5--5-3--3-2-2-|

G|--------------------------------------|
D|--------------------------------------|
A|-------3--333-5-3-2-------------------|
E|--0--0--------------3-5-5-5-3-3-3-222-|

G|-----------------------------------------|
D|-----------------------------------------|
A|-----2-2-----3-3-----5-5-----------------|
E|-0-0-----0-0-----0-0-----5-5-5-3-3-3-3\2-|

G|-----------------------------------------|
D|-----------------------------------------|
A|-----2-2-----3-3-----5-5-----------------|
E|-0-0-----0-0-----0-0-----5-5553-3-3-5-3\-|

[Chorus]

G|---------------------------------------------|
D|---------------------------------------------|
A|---------------3\2----3\2-2-2-2--5h7p5-32----|
E|-0-0-00-3\2-00-----00--------------------320-|

G|-----------------------------------------------|
D|-----------------------------------------------|
A|---------------3\2----3\2-22222222-3\2---3\2---|
E|-0-0-00-3\2-00-----00------------------3-----0-|

G|---------------------------------------------|
D|---------------------------------------------|
A|---------------3\2----3\2-2-2-2--5h7p5-32----|
E|-0-0-00-3\2-00-----00--------------------320-|

G|-------------------------------|
D|-------------------------------|
A|---------------3\2----3-2---2/-|
E|-0-0-00-3\2-00-----00----------|

[Guitar Solo 2]

G|---------------------------|
D|---------------------------|
A|------3--3-5--5------------|
E|-0--0-----------5--3--3-5\-|

G|---------------------------|
D|---------------------------|
A|------3--3-5--5------------|
E|-0--0-----------5--3-3-2-2-|

G|---------------------------|
D|---------------------------|
A|------3--3-5--5------------|
E|-0--0-----------5--3--3-5\-|

G|--------------------------------|
D|--------------------------------|
A|------3--3-5--5-----------------|
E|-0--0-----------55555-3-333-222-|

[Verse 2]

G|---------------------------|
D|---------------------------|
A|------3--3-5--5------------|
E|-0--0-----------5--3--3-5\-|

G|--------------------------------|
D|--------------------------------|
A|------3--3-5--5-----------------|
E|-0--0-----------5-5-5-3-3-3-222-|

G|-----------------------------------|
D|-----------------------------------|
A|------3--333-5-3-2-----------------|
E|-0--0--------------3-5--5-3--3-2-2-|

G|----------------------------------------|
D|----------------------------------------|
A|------3--333-5-3-2----------------------|
E|-0--0--------------3-5-5-5-3-3-33332222-|

G|-----------------------------------------|
D|-----------------------------------------|
A|-----2-2-----3-3-----5-5-----------------|
E|-0-0-----0-0-----0-0-----5-5-5-3-3-3-5-2-|

G|-----------------------------------------|
D|-----------------------------------------|
A|-----2-2-----3-3-----5-5-----------------|
E|-0-0-----0-0-----0-0-----5-5553-3-3-5-3\-|

[Chorus]

G|---------------------------------------------|
D|---------------------------------------------|
A|---------------3\2----3\2-2-2-2--5h7p5-32----|
E|-0-0-00-3\2-00-----00--------------------320-|

G|-----------------------------------------------|
D|-----------------------------------------------|
A|---------------3\2----3\2-22222222-3\2---3\2---|
E|-0-0-00-3\2-00-----00------------------3-----0-|

G|---------------------------------------------|
D|---------------------------------------------|
A|---------------3\2----3\2-2-2-2--5h7p5-32----|
E|-0-0-00-3\2-00-----00--------------------320-|

G|---------------------------------------------------|
D|---------------------------------------------------| x2
A|---------------3\2----3-2--222-222-222-5h7p5-32----|
E|-0-0-00-3\2-00-----00--------------------------320-|

G|-------------------------------|
D|-------------------------------|
A|-------------------------------|
E|-0-0-000-0-0-000-0-0-000-14b15-|

G|-----------------------------------------|
D|-----------------------------------------|
A|-------------------------7-7-7-7-7-7-7-7-|
E|-0-0-0-0-0-0-0-0-0-0-0-0-----------------|

G|---------------------------------------|
D|---------------------------------------| x2
A|-----------------------------------7-7-|
E|-0-0-0-0-0-0--0-0-0-0-0-0-0-0--0-0-----|

G|----------------------------------------------|
D|----------------------------------------------|
A|--------------7-7--7-7-7------------------7-7-|
E|-0-0-0-0-0-0-------------0-0-0-0-0-0--0-0-----|

G|---------------------------------------|
D|---------------------------------------|
A|-----------------------------------7-7-|
E|-0-0-0-0-0-0--0-0-0-0-0-0-0-0--0-0-----|

[Verse 3]

G|------------------------|----------------------|
D|------------------------|----------------------|
A|-5-7\-----------------7-|-5-7\-5-5--5-5--5-5-5-|
E|------0-0--0-0--0-0-0---|----------------------|
 |                                                 x2
G|----------------------|------------------------|
D|----------------------|------------------------|
A|-5-7\-----------------|-5-7\-3-3--3-3-3-2--2-2-|
E|------1-1--1-1--1-1-1-|------------------------|

G|---------------------9-9---|
D|-----------------9-9-----9-|
A|-7-7-7-7-7-7-7-7-----------|
E|---------------------------|

Guitar Solo 3

G|------------------------------------------------------|
D|------------------------------------------------------|
A|-------------------------------------------------7-7\-|
E|-0-0-0-0-0-0-0-0-0-0-0-0-0-0-0-0-0-0-0-0-0-0-0-0------|

G|-----------------------------|
D|-----------------------------|
A|----------------7-7--7-7-7-7-|
E|-0-0-0-0-0-0-0---------------|

G|----------------------------|
D|----------------------------|
A|-----------------------7-7\-|
E|-0-0-0-0-0-0-0-0-0-0-0------|

G|----------------------------|
D|----------------------------|
A|------------------7-----7-7-|
E|-0-0-0-0-0-0-0-0----0-0-----|

G|----------------------------|
D|----------------------------|
A|-----------------------7-7\-|
E|-0-0-0-0-0-0-0-0-0-0-0------|

G|------------------------------|
D|------------------------------|
A|-----------------7-7-7-5-5----|
E|-0-0-0-0-0-0-0-0-----------7\-|

G|----------------------------|
D|----------------------------|
A|-----------------------7-7\-|
E|-0-0-0-0-0-0-0-0-0-0-0------|

G|------------|------------|------------|
D|------------|------------|------------|
A|-5-7--------|-5-7-5-5--5-|-5-7--------|
E|-----0-0--0-|------------|-----0-0--0-|

G|--------------------------|
D|--------------------------|
A|---7-7-5-7-5-5--5-5-7p5---|
E|-0----------------------5-|

G|------------------------|
D|------------------------|
A|-5-7\-------------------|
E|------1-1-1--1-1--1-1-1-|

G|------------------------|
D|------------------------|
A|-5-7\-3-3--3-3-3-2--2-2-|
E|------------------------|

G|------------------------|
D|------------------------|
A|-5-7------------------7-|
E|-----0-0--0-0-0-0-0-0-0-|

G|--------------------|
D|--------------------|
A|-5-7-5-5--5-5-7p5---|
E|------------------5-|

G|-------------------------|
D|-------------------------|
A|-5-7\--------------------|
E|------1-1-1-1--1-1-1-1-1-|

G|------------------------|
D|------------------------|
A|-5-7\-3-3--3-3-3-2--2-2-|
E|------------------------|

G|--------------------------|
D|--------------------------|
A|-5-7-7-7-7-7-7-7---7----7-|
E|-----------------0---00---|

G|---------------------------|
D|---------------------------|
A|-5-7\-5-5-5-5-5--5-5-7p5---|
E|-------------------------7-|

G|---------------------------|
D|---------------------------|
A|-5-7\----------------------|
E|------1-1-1-1-1--1-1-1-1-1-|

G|------------------------|
D|------------------------|
A|-5-7\-3-3--3-3-3-2--2-2-|
E|------------------------|

G|--------------------------|
D|--------------------------|
A|-5-7-7-7-7-7-7-7---7----7-|
E|-----------------0---00---|

G|---------------------------|
D|---------------------------|
A|-5-7\-5-5---5--5-5-5-7p5---|
E|----------7--------------7-|

G|---------------------------|
D|---------------------------|
A|-5-7\----------------------|
E|------1-1-1-1-1--1-1-1-1-1-|

G|------------------------|
D|------------------------|
A|-5-7\-3-3--3-3-3-2--2-2-|
E|------------------------|

Guitar Solo 4

G|-----------------------|
D|-----------------------|
A|-77-5-77-5-77---7----7-|
E|--------------0---00---|

G|---------------------------|
D|---------------------------|
A|-5-7\-5-5---5--5-5-5-7p5---|
E|----------7--------------7-|

G|---------------------------|
D|---------------------------|
A|-5-7\----------------------|
E|------1-1-1-1-1--1-1-1-1-1-|

G|------------------------|
D|------------------------|
A|-5-7\-3-3--3-3-3-2--2-2-|
E|------------------------|

G|----------------------------|
D|----------------------------|
A|-7-7---7-7-7---7-7---7----7-|
E|-----0-------0-----0---00---|

G|---------------------------|
D|---------------------------|
A|-5-7\-5-5---5--5-5-5-7p5---|
E|----------7--------------7-|

G|---------------------------|
D|---------------------------|
A|-5-7\----------------------|
E|------1-1-1-1-1--1-1-1-1-1-|

G|------------------------|
D|------------------------|
A|-5-7\-3-3--3-3-3-2--2-2-|
E|------------------------|

[Outro]

G|---------|---------|----------|----------|---------|
D|---------|---------|----------|----------|---------|
A|-5-7-----|-5-7-5-5-|-5-7\-----|-5-7\-3-3-|-3-2-2-2-|
E|-----0-0-|---------|------1-1-|----------|---------|

G|------------------|------------------|-------------------|
D|------------------|------------------|-------------------|
A|-5-7--------------|-5-7-5-5--5-5-5-5-|-5-7\--------------|
E|-----0-0--0-0-0-0-|------------------|------1-1--1-1-1-1-|
 |
G|----------------------------------------------------|
D|----------------------------------------------------|
A|-5-7\-3-3--2-2-2-2--2-2-2-2--2-2-2-2--2--0----------|
E|--------------------------------------------3--2--0-|
 |
G|-----------------------------------------------------------------------|
D|-----------------------------------------------------------------------|
A|-7777777777777777777777777777777777777777777777777777777-7-7-7-7-7--7\-|
E|-0000000000000000000000000000000000000000000000000000000-0-0-0-0-0--0--|

************************************

| h  Hammer-on
| \  Slide down
| p  Pull-off
| /  Slide up
| b  Bend

************************************
Suggest correction
comments
print report bad tab
3 comments total.
0 reply
Metallica.91 10 May 29, 2010 07:49 AM

Really good tab, helped me alot, thanks, but the chorus is abit odd wit the slide from 3 to 2 but other then that its good.

0 reply
DomDaDude 10 Aug 03, 2010 10:43 AM

1:05
G|--------------------------------------|
D|--------------------------------------|
A|------3--323-5-3-2--------------------|
E|-0--0--------------3-5--5-5-3-333-222-|

There :D all the rest is wonderful

0 reply
MaggaraMarine 1,223 Jan 09, 2011 06:09 AM

I like it when somebody uses master tracks. I'm not a bassist but I make bass tabs too when I use Power tab. I thought that I could send this kind of tab but someone did it before me. Great job 5 stars.

guest
You may want to rate the tab now too:
select rating
Wanna post a correction for this tab? Suggest correction