Oops, an error
Loading. Please wait.

Wherever I May Roam Tab

version 1
162,075 views 84 this week
9 commentsread comments
1 2 3 4 5
x 21
add to favorites
launch autoscroll
font size
0
reset
how to read this tab
guitar tuner
backing track
0:00
0:00
×
Best way to learn
"Wherever I May Roam"
Autoscroll
slow
fast
+/-
esc
set tempo
stop
[Intro]
e|------------------------------------|
B|----5-5-6-5----8-8-10-6----5-5-6-5--|
G|------------------------------------| (3x)
D|----2-2-3-2----5-5-7--3----2-2-3-2--|
A|------------------------------------|
E|-0----------0-----------0-----------|

e|-------------------------------------|
B|-------------------------------------|
G|---------H---------H----------H------| (2x)
D|------2-2-3-2---5-5-7-5----2-2-3-2---|
A|-------------------------------------|
E|--0---------------------0------------|

e|----------------------------------------------------------|           
B|----------------------------------------------------------|            
G|--2--------------------H--------H-----------------2-------|          
D|--0-3-4-5-----0-1-2-3-2-3----5-5-7-5-----2-2-3-2--0-3-4-5-|          
A|----1-2-3-------------------------------------------1-2-3-|
E|--------------------------0-----------0-------------------|        

e|---------------------------------------------------------------------|
B|---------------------------------------------------------------------|
G|-------------------5---------4-----------5---------------------------|(listen 4
D|---0-1-2-3------3----3----2----2--5---3----3------3--2--3-----3----3-| the 
A|------------2----------------------------------2--1--0--1--2--1--5-1-| timing
E|------------0----------------------------------0-----------0-----3---| on these)

 (then back to this part)
e|--------------------------------------------------|
B|--------------------------------------------------|
G|----------H----------H-----------H------2---------|
D|-0-1-2-3-2-3------5-5-7-5-----2-2-3-2---0-3-4-5---|
A|------------------------------------------1-2-3---|
E|--------------0------------0----------------------|

e|----------------------------------------------------------------------|
B|----------------------------------------------------------------------|
G|--------------------H----------------------H---------------------H----|
D|----3------3-----3-3-5-3---2------2-----2-2-3-2-----3-----3---3-3-5-3-|
A|----------------------------------------------------------------------|
E|-1----1-1-----1----------0---0-0-----0-----------1----1-1---1---------|

 (the song just goes like that for a while...then the outro)
e|----------------------------------------------|
B|----------------------------------------------|
G|-----------H--------H---------H------2--------|
D|--0-1-2-3-2-3----5-5-7-5---2-2-3-2---0-3-4-5--|
A|---------------------------------------1-2-3--|
E|--------------0----------0--------------------|
Suggest correction
comments
print report bad tab
9 comments total. Showing first comments.
-1 reply
slipknotfan2448 10 Jun 13, 2005 08:00 PM

this tab is completly wrong go on mxtabs.net and find the real to play it

0 reply
guitar boy77 10 Jun 08, 2006 08:02 AM

i am not the best guitarist but this sucks ass

+1 reply
ariellaxoxox 10 Feb 21, 2008 09:44 PM

um u can play the eaiser intro like this
-0-0-1-0----3-3-5-1-0----0-0-1-0-
---------------------------------
---------------------------------
---------------------------------
---------------------------------
0---------0----------------------

guest
You may want to rate the tab now too:
select rating
Wanna post a correction for this tab? Suggest correction