Oops, an error
Loading. Please wait.

Wherever I May Roam Tab

version 3
17,385 views 21 this week
9 commentsread comments
1 2 3 4 5
accurate
x 17
add to favorites
launch autoscroll
font size
0
reset
how to read this tab
guitar tuner
Autoscroll
slow
fast
+/-
esc
set tempo
stop
Help us to improve Ultimate-Guitar.com Take our survey!
×
"Wherever I May Roam" - Metallica, Black Album
Tabbed by Chris

h=hammer on
p=pull off
.=palm mute
/=slide up
\=slide down

(Note: the intro is played with a sitar, not a guitar, so I left it out.)

  0:29                          x2
E|--------------------------------|
B|--------------------------------|
G|-------------0-0-2--------------|
D|----2-2-3-2--------3-2--2-2-3-2-|
A|-2------------------------------|
E|-0------------------------------|

                                                    x2
|-----------------------------------------------------|
|-----------------------------------------------------|
|-----------------------------0-0-2-------------------|
|-2-3-4-5-----2-2-3-2h3p2-----------3-----2-2-3-2h3p2-|
|-0-1-2-3--2---------------2-----------2--------------|
|----------0---------------0-----------0--------------|

                                                        x1
|---------------------------------------------------------|
|---------------------------------------------------------|
|---------------------------------0-0-2-------------------|
|-2-3-4-5--0-1-2-3--2-3-2h3p2-----------3-----2-2-3-2h3p2-|
|-0-1-2-3----------------------2-----------2--------------|
|------------------------------0-----------0--------------|
           . . . .
                                                                     x1
|----------------------------------------------------------------------|
|----------------------------------------------------------------------|
|-----------------------------------0----------------------------------|
|-2-3-4-5--0-1-2-3---------3------2--------3-----4--2----------3-----3-|
|-0-1-2-3-----------2----3------2--------3----2--2--0--0-0--2--1--5--1-|
|-------------------0--1------0--------1------0-------------0-----3----|
           . . . .     . .    . . .    . .             . .
                                                                             x1
|------------------------------------------------------------------------------|
|------------------------------------------------------------------------------|
|------------------------------------------------------------------------------|
|------------------------------------------------------------------------------|
|-5/7-------7-------7-------2/4-------2-------2-------7/9-------9-------9------|
|-3/5--5-5--5--5-5--5--5-5--0/2--0-0--0--0-0--0--0-0--5/7--7-7--7--7-7--7--7-7-|
       . .     . .     . .       . .     . .     . .       . .     . .     . .

 Coda
 3:41
|--------------------------------0--------------------------|
|----------------------------1-2----------------------------|
|-----------------1-2-1h2p1---------------------------------|
|----2-2-3-2h3p2-----------------------0-2-3-5-7-8-10-12-8--|
|-2---------------------------------2-----------------------|
|-0---------------------------------0-----------------------|
                                       . . . . . . .  .  .

I haven't figured out the solo, because it's insane.
If you have song requests for me to tab e-mail me at ratiug318@hotmail.com
Suggest correction
What's this?
You can suggest a correction to this tab. Community and Mods will review your correction and vote to approve or reject it.
comments
print report bad tab
9 comments total. Showing first comments.
+1 reply
ShowNoMercy 19 wrote on July 27 2003, 12:00 am

great tab

+1 reply
corgan_06 155 wrote on September 6 2003, 12:00 am

awesoem tab

+1 reply
corgan_06 155 wrote on September 6 2003, 12:00 am

awesome tab

guest
You may want to rate the tab now too:
select rating
Please do not post tabs as comments. Select "correction" instead!