Oops, an error
Loading. Please wait.

Wherever I May Roam Tab

version 6
26,702 views 78 this week
2 commentsread comments
1 2 3 4 5
x 9
add to favorites
launch autoscroll
font size
0
reset
how to read this tab
guitar tuner
Autoscroll
slow
fast
+/-
esc
set tempo
stop
Help us to improve Ultimate-Guitar.com Take our survey!
×
Wherever I May Roam - Metallica
Album: Metallica (or the "Black Album")
Tabbed by: DickOfDestiny

Standard tuning (EADGBe)


[Intro]

 (clean)
e|----------------------------------------------------------------------|
B|----------------------------------------------------------------------|
G|------9-9/10-9---------12-12/14-10-----9-----9-9/10-9-----------------|
D|----------------------------------------------------------------------|
A|------7-7/8--7---------10-10/12-8------7-----7-7/8--7-----------------|
E|0----------------0---------------------0------------------------------|

e|----------------------------------------------------------------------|
B|----------------------------------------------------------------------|
G|------9-9/10-9---------12-12/14-10-----9-----9-9/10-9-----------------|
D|----------------------------------------------------------------------|
A|------7-7/8--7---------10-10/12-8------7-----7-7/8--7-----------------|
E|0----------------0---------------------0------------------------------|

e|----------------------------------------------------------------------|
B|----------------------------------------------------------------------|
G|------9-9/10-9---------12-12/14-14\10---9-----------------------------|
D|----------------------------------------------------------------------|
A|------7-7/8--7---------10-10/12-12\8----7-----------------------------|
E|0----------------0----------------------0-----------------------5/20\-|

e|----------------------------------------------------------------------------|
B|----------------------------------------------------------------------------|
G|----------------------------------------------------------------------------|
D|--------------------5-5/7-------------------------------------------5-5/7---|
A|2----7-7h8-7~~~------------8----7---7-7h8-7~~~\---2---7-7h8-7~~~------------|
E|0-------------------------------0-----------------0-------------------------|

e|-------------------|
B|-------------------|
G|-------------------|
D|-------------------|
A|8-----7--7-7h8-7~~~|
E|------0------------|

e|------------------------|
B|------------------------|
G|------------------------|
D|------------------------|
A|--------7---8---9---10\-|
E|--------5---6---7---8-\-|

 Rhy Fig I
e|---------------------------------------------------------------------------|
B|---------------------------------------------------------------------------|
G|---------------------------------------------------------------------------|
D|----------------------------5-5/7------------------------------------------|
A|2------7-7h8-7h8p7h8p7--7----------8---7----7-7h8-7h8p7h8p7--7---8---9---10|
E|0----0------------------0--0-----------0---0-----------------5---6---7---8-|
      .                     .               .

e|---------------------------------------------------------------------------|
B|---------------------------------------------------------------------------|
G|---------------------------------------------------------------------------|
D|----------------------------5-5/7------------------------------------------|
A|2------7-7h8-7h8p7h8p7--7----------8---7----7-7h8-7h8p7h8p7--7---8---9---10|
E|0----0------------------0--0-----------0---0-----------------5---6---7---8-|
      .                     .               .

 Rhy fig II
e|---------------------------------------------------------------------------|
B|---------------------------------------------------------------------------|
G|---------------------------------------------------------------------------|
D|----------------------------5-5/7-----9------------------------------------|
A|5-6-7-8-7h8-7h8p7h8p7-7-----------8---7-----7-7h8-7h8p7h8p7-7---8---9---10-|
E|----------------------0---0-----------0---0-----------------5---6---7---8--|
 . . . .                   .               .

e|---------------------------------------------------------------------------|
B|---------------------------------------------------------------------------|
G|---------------------------------------------------------------------------|
D|---------2~~---------------------------------3~~---------------------------|
A|5-6-7-8--2~~-------------------------------3-------------------------------|
E|---------0~~-----------------------------1---------------------------------|
 . . . .                                  . .

 many believe that to play like this:
e|---------|
B|---------|
G|------0~~|
D|----2----|
A|--2------|
E|0--------|
 . . .
but if you listen to the track you can hear the difference!

e|----------------------------------------------------------------|
B|----------------------------------------------------------------|
G|------0~~-------------------------------------------------------|
D|--2---------------------------------3~~-------------------------|
A|----2-----------------------------3-----------------------------|
E|0-------------------------------1-------------------------3/10\-|
 . . .                           . .

e|------------------------------------------------------------------|
B|------------------------------------------------------------------|
G|---------------------------------3~~------------------------------|
D|2~~------------------------------3~~------------------------------|
A|2~~------------------------------1~~------------------------------|
E|0~~---------------------------------------------------------------|

e|------------------------------------------------------------------|
B|------------------------------------------------------------------|
G|2~~------------------------------3~~------------------------------|
D|2~~------------------------------3~~------------------------------|
A|0~~------------------------------1~~------------------------------|
E|------------------------------------------------------------------|

 (clean)
e|--------0---------------0---------------------------------------|
B|------------0---------------0-----------3---------------3-------|
G|--------------------------------------------3---------------3---|
D|-----------------------------------3---------------3------------|
A|----2---------------2-----------1---------------1---------------|
E|0---------------0-----------------------------------------------|

e|----------------------------------------------------------------|
B|--------3---------------3---------------3---------------3-------|
G|------------3---------------3---------------3---------------3---|
D|------------------------------------3---------------3-----------|
A|----1---------------1-----------1---------------1---------------|
E|3---------------3-----------------------------------------------|

 Pre - Chorus
e|----------------------------------------------------------------------------|
B|----------------------------------------------------------------------------|
G|----------------------------------------------------------------------------|
D|--------------------------------------------5-5/7-----9---------------------|
A|1~~-1---2---3---5-6-7-8-7h8-7h8p7h8p7-7-----------8---7-----7-7h8-7h8p7h8p7-|
E|--------------------------------------0---0-----------0---0-----------------|
                 . . . .                   .               .

e|------------------|
B|------------------|
G|------------------|
D|------------------|
A|-7---8---9---10\--|
E|-5---6---7---8-\--|

e|---------------------------------------------------------------|
B|---------------------------------------------------------------|
G|---------------------------------------------------------------|
D|3---3-------3--------3---2h3-2h3p2h3p2--2---2-------2-------2--|
A|3---3-------3--------3------------------2---2-------2-------2--|
E|1---1---1-1-1----1-1-1------------------0---0---0-0-0---0-0-0--|
         . .      . .                            . .     . .

e|------------------------------------------------------|
B|------------------------------------------------------|
G|----------------3---3-------3-------3-----------------|
D|-2h3-2h3p2h3p2--3---3-------3-------3---2h3-2h3p2h3p2-|
A|----------------1---1---1-1-1---1-1-1-----------------|
E|------------------------------------------------------|
                        . .     . .

 [Chorus]
e|-----------------------------------------------------------------------|
B|-----------------------------------------------------------------------|
G|-2~~-------------------------------------------------------------------|
D|-2~~--------------------------------5~~--------------------------------|
A|-0~~--------------------------------5~~--------------------------------|
E|------------------------------------3~~--------------------------------|

 Rhy fig I
e|---------------------------------------------------------------------------|
B|---------------------------------------------------------------------------|
G|---------------------------------------------------------------------------|
D|----------------------------5-5/7------------------------------------------|
A|2------7-7h8-7h8p7h8p7--7----------8---7----7-7h8-7h8p7h8p7--7---8---9---10|
E|0----0------------------0--0-----------0---0-----------------5---6---7---8-|
      .                     .               .

e|---------------------------------------------------------------------------|
B|---------------------------------------------------------------------------|
G|---------------------------------------------------------------------------|
D|----------------------------5-5/7------------------------------------------|
A|2------7-7h8-7h8p7h8p7--7----------8---7----7-7h8-7h8p7h8p7--7---8---9---10|
E|0----0------------------0--0-----------0---0-----------------5---6---7---8-|
      .                     .               .


e|---------|-----------------------------------------------------------------|
B|---------|-----------------------------------------------------------------|
G|---------|-----------------------------------------------------------------|
D|---------|-2~~---------------------------------3~~-------------------------|
A|-5-6-7-8-|-2~~-------------------------------3-----------------------------|
E|---------|-0~~-----------------------------1--------------------------3/10\|
  . . . .                                   . .

e|------------------------------------------------------------------|
B|------------------------------------------------------------------|
G|---------------------------------3~~------------------------------|
D|2~~------------------------------3~~------------------------------|
A|2~~------------------------------1~~------------------------------|
E|0~~---------------------------------------------------------------|

e|------------------------------------------------------------------|
B|------------------------------------------------------------------|
G|2~~------------------------------3~~------------------------------|
D|2~~------------------------------3~~------------------------------|
A|0~~------------------------------1~~------------------------------|
E|------------------------------------------------------------------|

 (clean)
e|--------0---------------0---------------------------------------|
B|------------0---------------0-----------3---------------3-------|
G|--------------------------------------------3---------------3---|
D|-----------------------------------3---------------3------------|
A|----2---------------2-----------1---------------1---------------|
E|0---------------0-----------------------------------------------|

e|----------------------------------------------------------------|
B|--------3---------------3---------------3---------------3-------|
G|------------3---------------3---------------3---------------3---|
D|------------------------------------3---------------3-----------|
A|----1---------------1-----------1---------------1---------------|
E|3---------------3-----------------------------------------------|

 Pre - Chorus
e|----------------------------------------------------------------------------|
B|----------------------------------------------------------------------------|
G|----------------------------------------------------------------------------|
D|--------------------------------------------5-5/7-----9---------------------|
A|1~~-1---2---3---5-6-7-8-7h8-7h8p7h8p7-7-----------8---7-----7-7h8-7h8p7h8p7-|
E|--------------------------------------0---0-----------0---0-----------------|
                 . . . .                   .               .

e|------------------|
B|------------------|
G|------------------|
D|------------------|
A|-7---8---9---10\--|
E|-5---6---7---8-\--|

e|---------------------------------------------------------------|
B|---------------------------------------------------------------|
G|---------------------------------------------------------------|
D|3---3-------3--------3---2h3-2h3p2h3p2--2---2-------2-------2--|
A|3---3-------3--------3------------------2---2-------2-------2--|
E|1---1---1-1-1----1-1-1------------------0---0---0-0-0---0-0-0--|
         . .      . .                            . .     . .

e|------------------------------------------------------|
B|------------------------------------------------------|
G|----------------3---3-------3-------3-----------------|
D|-2h3-2h3p2h3p2--3---3-------3-------3---2h3-2h3p2h3p2-|
A|----------------1---1---1-1-1---1-1-1-----------------|
E|------------------------------------------------------|
                        . .     . .

 [Chorus]
e|-----------------------------------------------------------------------|
B|-----------------------------------------------------------------------|
G|-2~~-------------------------------------------------------------------|
D|-2~~--------------------------------5~~--------------------------------|
A|-0~~--------------------------------5~~--------------------------------|
E|------------------------------------3~~--------------------------------|

 [Interlude]
e|------------------------------------------------|
B|------------------------------------------------|
G|--------------------------------------------9~\-|
D|-----------------------6h7-6h7p6h7p6--9-10------|
A|2----/7-7h8-7h8p7h8p7---------------------------|
E|0---0-------------------------------------------|
     .

e|------------------------------------------|
B|------------------------------------------|
G|--------------------------8--9--11/12--8~\|
D|--------------6--7--9--10-----------------|
A|2---2---7--8------------------------------|
E|0---0-0-----------------------------------|
       . .  .  .  .  .  .  .  .

e|------------------------------------------------|
B|------------------------------------------------|
G|--------------------------------------------9~\-|
D|-----------------------6h7-6h7p6h7p6--9-10------|
A|2----/7-7h8-7h8p7h8p7---------------------------|
E|0---0-------------------------------------------|
     .

e|------------------------------------------|
B|------------------------------------------|
G|--------------------------8--9--11/12--8~\|
D|--------------6--7--9--10-----------------|
A|2---2---7--8------------------------------|
E|0---0-0-----------------------------------|
       . .  .  .  .  .  .  .  .

 Pre - Chorus
e|---------------------------------------------------------------|
B|---------------------------------------------------------------|
G|---------------------------------------------------------------|
D|3---3-------3--------3---2h3-2h3p2h3p2--2---2-------2-------2--|
A|3---3-------3--------3------------------2---2-------2-------2--|
E|1---1---1-1-1----1-1-1------------------0---0---0-0-0---0-0-0--|
         . .      . .                            . .     . .

e|------------------------------------------------------|
B|------------------------------------------------------|
G|-2h3-2h3p2h3p2--3---3-------3-------3-----------------|
D|----------------3---3-------3-------3---2h3-2h3p2h3p2-|
A|----------------1---1---1-1-1---1-1-1-----------------|
E|------------------------------------------------------|
                        . .     . .

 [Chorus]
e|-----------------------------------------------------------------------|
B|-----------------------------------------------------------------------|
G|-2~~-------------------------------------------------------------------|
D|-2~~--------------------------------5~~--------------------------------|
A|-0~~--------------------------------5~~--------------------------------|
E|------------------------------------3~~--------------------------------|


[Solo/wah]

e|-12-\----------------------------------------------------------------|
B|-12-\-----------------------------9-12p9-9-12p9-9-10-9---------------|
G|-------9~~~-----9--10b11r10-11b13-----------------------10p9-10p9----|
D|------------10----------------------------------------------------10-|
A|---------------------------------------------------------------------|
E|---------------------------------------------------------------------|

e|-12-\------------------------------------------|
B|-12-\---------------------15b17r15---15b17~~~--|
G|--------9~~~----9--9b10------------------------|
D|-------------10--------------------------------|
A|-----------------------------------------------|
E|-----------------------------------------------|

e|-17p16-17p16p13p12-17p16-17p16p13p12-17p16-17p16p13p12-|
B|-------------------------------------------------------|
G|-------------------------------------------------------|
D|-------------------------------------------------------|
A|-------------------------------------------------------|
E|-------------------------------------------------------|

e|17p16-17p16p13p12-17p16-17p16p13p12-|
B|------------------------------------|
G|------------------------------------|
D|------------------------------------|
A|------------------------------------|
E|------------------------------------|

e|-17p16-17p16p13p12-17p16-17p16p13p12-17p16-17p16p13p12----|
B|----------------------------------------------------------|
G|----------------------------------------------------------|
D|----------------------------------------------------------|
A|----------------------------------------------------------|
E|----------------------------------------------------------|

e|-----------------------------------------------------------------------------|
B|15p13p12-15p12-15p13p12-15p12-15p12h17p15p12-12-15p12-17p15p12-12-15p13p12-1-|
G|-----------------------------------------------------------------------------|
D|-----------------------------------------------------------------------------|
A|-----------------------------------------------------------------------------|
E|-----------------------------------------------------------------------------|

e|---------------------|
B|13p12----------------|
G|-----14-13-14b16r14--|
D|-------------------13|
A|---------------------|
E|---------------------|

e|-------------------------------------------------16-17-17-17---16-------|
B|-15b17r15--15b17~~~-15b17r15--12--15~~~~~~-16-17------------------18p17-|
G|------------------------------------------------------------------------|
D|------------------------------------------------------------------------|
A|------------------------------------------------------------------------|
E|------------------------------------------------------------------------|

e|-------------------|
B|17~~17-18p17-12~~~-|
G|-------------------|
D|-------------------|
A|-------------------|
E|-------------------|

e|------------------------------------------------------------17/19--19~~~~~~|
B|-12-12-12--12--12/15--15-15~~~~~~--15-15-12-13--14-/16-/18--17/19--19~~~~~~|
G|-12-12-12--12--12/15--15-15~~~~~~--15-15-12-13--14-/16-/18--17/19--19~~~~~~|
D|-12-12-12--12--12/15--15-15~~~~~~------------------------------------------|
A|---------------------------------------------------------------------------|
E|---------------------------------------------------------------------------|

e|-22b24r22--22b24r22~~~~~~~~-------------------------|
B|----------------------------------------------------|
G|----------------------------------------------------|
D|----------------------------------------------------|
A|----------------------------------------------------|
E|----------------------------------------------------|

e|-19p16-------19-19p16-------19-19p16-------19-19p16-16-------16-19p16-16\13-|
B|------17-17----------17-17----------17-17-------------17-17-----------------|
G|----------------------------------------------------------------------------|
D|----------------------------------------------------------------------------|
A|----------------------------------------------------------------------------|
E|----------------------------------------------------------------------------|

e|13-13h16p13-12-12--|
B|-------------------|
G|-------------------|
D|-------------------|
A|-------------------|
E|-------------------|

e|-13p12----12--------------------------------------------|
B|-------15----15p13-13-13-13h15p13~~~~~~~~~~-------------|
G|--------------------------------------------------------|
D|--------------------------------------------------------|
A|--------------------------------------------------------|
E|--------------------------------------------------------|


[Pre-Chorus]

e|---------------------------------------------------------------|
B|---------------------------------------------------------------|
G|---------------------------------------------------------------|
D|3---3-------3--------3---2h3-2h3p2h3p2--2---2-------2-------2--|
A|3---3-------3--------3------------------2---2-------2-------2--|
E|1---1---1-1-1----1-1-1------------------0---0---0-0-0---0-0-0--|
         . .      . .                            . .     . .

e|------------------------------------------------------|
B|------------------------------------------------------|
G|-2h3-2h3p2h3p2--3---3-------3-------3-----------------|
D|----------------3---3-------3-------3---2h3-2h3p2h3p2-|
A|----------------1---1---1-1-1---1-1-1-----------------|
E|------------------------------------------------------|
                        . .     . .


[Chorus]

e|-----------------------------------------------------------------------|
B|-----------------------------------------------------------------------|
G|-2~~-------------------------------------------------------------------|
D|-2~~--------------------------------5~~--------------------------------|
A|-0~~--------------------------------5~~--------------------------------|
E|------------------------------------3~~--------------------------------|

e|-----------------------------------------------------------------------|
B|-----------------------------------------------------------------------|
G|-5~~--------------------------------4~~---------------3~~--------------|
D|-5~~--------------------------------4~~---------------3~~--------------|
A|-3~~--------------------------------2~~---------------1~~--------------|
E|-----------------------------------------------------------------------|

 Rhy Fig I
e|---------------------------------------------------------------------------|
B|---------------------------------------------------------------------------|
G|---------------------------------------------------------------------------|
D|----------------------------5-5/7------------------------------------------|
A|2------7-7h8-7h8p7h8p7--7----------8---7----7-7h8-7h8p7h8p7--7---8---9---10|
E|0----0------------------0--0-----------0---0-----------------5---6---7---8-|
      .                     .               .

 Rhy Fig II
e|---------------------------------------------------------------------------|
B|---------------------------------------------------------------------------|
G|---------------------------------------------------------------------------|
D|----------------------------5-5/7-----9------------------------------------|
A|5-6-7-8-7h8-7h8p7h8p7-7-----------8---7-----7-7h8-7h8p7h8p7-7---8---9---10-|
E|----------------------0---0-----------0---0-----------------5---6---7---8--|
 . . . .                   .               .

e|---------------------------------------------------------------------------|
B|---------------------------------------------------------------------------|
G|---------------------------------------------------------------------------|
D|----------------------------5-5/7-----9------------------------------------|
A|5-6-7-8-7h8-7h8p7h8p7-7-----------8---7-----7-7h8-7h8p7h8p7-7---8---9---10-|
E|----------------------0---0-----------0---0-----------------5---6---7---8--|
 . . . .                   .               .


[Outro Solo/wah]

e|--16--16p13p12--16p13p12--16----12--16p13p12--16p13p12--|
B|--------------------------------------------------------|
G|--------------------------------------------------------|
D|--------------------------------------------------------|
A|--------------------------------------------------------|
E|--------------------------------------------------------|

e|--16p13p12--16--17p16p13p12--16p13p12--16p13p12--16--17p16--17p16p13p12-|
B|------------------------------------------------------------------------|
G|------------------------------------------------------------------------|
D|------------------------------------------------------------------------|
A|------------------------------------------------------------------------|
E|------------------------------------------------------------------------|

e|--13h16p13p12-12h13-12h13p12------12--13p12------12-----------------|
B|------------------------------15-------------15------15p13------12--|
G|------------------------------------------------------------15------|
D|--------------------------------------------------------------------|
A|--------------------------------------------------------------------|
E|--------------------------------------------------------------------|

e|----------------------------------------|-----------------------------|
B|--13p12---------12~~--12----------------|--15b17----15b17----15b17----|
G|---------14p13--------------14p13-14~~--|-----------------------------|
D|----------------------------------------|-----------------------------|
A|----------------------------------------|-----------------------------|
E|----------------------------------------|-----------------------------|

e|---------------------12-|-17p16-17p16p13p12-16p13p12-17p16-17p16p13p12-|
B|-15b17----15b17r15~~----|----------------------------------------------|
G|------------------------|----------------------------------------------|
D|------------------------|----------------------------------------------|
A|------------------------|----------------------------------------------|
E|------------------------|----------------------------------------------|

e|16p13p12--17p16--17p16p13p12--16p13p12--16p13p12--12----12~~--------|
B|-------------------------------------------------------------13p12--|
G|--------------------------------------------------------------------|
D|--------------------------------------------------------------------|
A|--------------------------------------------------------------------|
E|--------------------------------------------------------------------|

e|--------------------------------------------------------|
B|--13p12-------------------12--13p12-----------------12--|
G|---------14p13--14----14-------------14p13--14--14------|
D|--------------------------------------------------------|
A|--------------------------------------------------------|
E|--------------------------------------------------------|

e|----------------------------------------------------------|
B|--13p12-------------------12--13p12-------------------12--|
G|---------14p13--14----14-------------14p13--14----14------|
D|----------------------------------------------------------|
A|----------------------------------------------------------|
E|----------------------------------------------------------|

e|--------------------------------------------------------------|
B|--13p12------13p12------12--13--13p12------12-------------12--|
G|---------14---------14-----------------14------14p13--14------|
D|--------------------------------------------------------------|
A|--------------------------------------------------------------|
E|--------------------------------------------------------------|

e|----------------------------------------------|
B|--15pb17~~~--15pb17~~~--15pb17~~~--15pb17~~~--|
G|----------------------------------------------|
D|----------------------------------------------|
A|----------------------------------------------|
E|----------------------------------------------|

e|--16-16-16-16-16-16-16-16-16-16-16-16-17-17-17-17-17-17-17-17-17-17-17-17--|
B|---------------------------------------------------------------------------|
G|---------------------------------------------------------------------------|
D|---------------------------------------------------------------------------|
A|---------------------------------------------------------------------------|
E|---------------------------------------------------------------------------|

e|--19-19-19-19-19-19-19-19-19-19-19-19-22-22-22-22-22-22-22-22-22-22-22-19--|
B|---------------------------------------------------------------------------|
G|---------------------------------------------------------------------------|
D|---------------------------------------------------------------------------|
A|---------------------------------------------------------------------------|
E|---------------------------------------------------------------------------|

e|--22b24----22b24----22b24----22b24----|--22b24----22b24~~-|
B|--------------------------------------|-------------------|
G|--------------------------------------|-------------------|
D|--------------------------------------|-------------------|
A|--------------------------------------|-------------------|
E|--------------------------------------|-------------------|

e|------------------12------------------12---------------|
B|--9h10--12--9h10------9h10--12--9h10------9h10--12--9h-|
G|-------------------------------------------------------|
D|-------------------------------------------------------|
A|-------------------------------------------------------|
E|-------------------------------------------------------|

e|------------12------------------12------------------|
B|--10--9h10------9h10--12--9h10------9h10--12--9h10--|
G|----------------------------------------------------|
D|----------------------------------------------------|
A|----------------------------------------------------|
E|----------------------------------------------------|

e|12-------------------------------------|-12~~~-12------12~~~--12------|
B|----9h10-12-12p10-10--9h10-12-9h10p9---|----------9-10-----------9-10-|
G|-------------------------------------9-|------------------------------|
D|---------------------------------------|------------------------------|
A|---------------------------------------|------------------------------|
E|---------------------------------------|------------------------------|

e|12--------------12--------------|-12----------------10~~~----12--13-|
B|---9-10-12-9-10----9-10-12-9-10-|----9-10-12-10-12--------15--------|
G|--------------------------------|-----------------------------------|
D|--------------------------------|-----------------------------------|
A|--------------------------------|-----------------------------------|
E|--------------------------------|-----------------------------------|

e|----16----13----12----12h13p12------12------------------|
B|-------------------15-----------15------15--13--12--13--|
G|--------------------------------------------------------|
D|--------------------------------------------------------|
A|--------------------------------------------------------|
E|--------------------------------------------------------|

e|-------------------------------------------------------12--|
B|--13p12------------13p12---------13p12-------------12------|
G|---------14p13h14---------14p13---------14p13--14----------|
D|-----------------------------------------------------------|
A|-----------------------------------------------------------|
E|-----------------------------------------------------------|

e|------------------------------------------------|
B|------------------------13p12-------------------|
G|--12---------12----------------14p13--14----12--|
D|-------14p12------------------------------------|
A|------------------------------------------------|
E|------------------------------------------------|

e|----------------------------------|------------------------------------|
B|13p12------------13p12------------|-13p12---------13-------13p12----12-|
G|-----14p13/\14p12-----14p13\/14p12|------14p13-14----14p13--------14---|
D|------------\/---------------\/---|------------------------------------|
A|----------------------------------|------------------------------------|
E|----------------------------------|------------------------------------|

e|--------12---------12---------12----------12---13-|-13--12--13-12-12-13-12-|
B|-10h13------10h13------10h13-------10h13----------|------------------------|
G|--------------------------------------------------|------------------------|
D|--------------------------------------------------|------------------------|
A|--------------------------------------------------|------------------------|
E|--------------------------------------------------|------------------------|

e|-12-13-12-13-13p16--12--13--16--16b17--16--17--19--16--20--17--21--18--22-|
B|--------------------------------------------------------------------------|
G|--------------------------------------------------------------------------|
D|--------------------------------------------------------------------------|
A|--------------------------------------------------------------------------|
E|--------------------------------------------------------------------------|

e|--22b24----22b24----22b24-r22-b24~~----------|
B|---------------------------------------------|
G|---------------------------------------------|
D|---------------------------------------------|
A|---------------------------------------------|
E|---------------------------------------------|



************************************

| ~   Let ring
| /   Slide to required note
| \   Slide down from requiered note
| h   Hammer on
| p   Pull off
| b   Bend to required pith
| r   Bend Return to required pitch

************************************
Suggest correction
comments
print report bad tab
2 comments total.
+2 reply
kaka40 10 May 02, 2011 05:03 PM

Nice version well done ....

0 reply
DickOfDestiny 117 May 22, 2011 09:07 AM

thank you !

guest
You may want to rate the tab now too:
select rating
Wanna post a correction for this tab? Suggest correction