Oops, an error
Loading. Please wait.
We have an official Whiplash tab made by UG professional guitarists. Check out the tab »
×
15,996 views 15 this week
no commentswrite comment
1 2 3 4 5
x 8
add to favorites
×
Save as Personal and add changes to this tab that will be seen only by you. Learn more ›
×
You can save this tab as Personal to edit and correct it or add notes. All changes will be seen only by you. Learn more »
launch autoscroll
font size
0
reset
guitar tuner
backing track
0:00
0:00
edit
Autoscroll
slow
fast
+/-
esc
set tempo
stop
Author
[Intro]
w/ guitar                                    Play x11 (fast triplets)
G|---------------------------------------|----------------------------------|
D|---------------------------------------|----------------------------------|
A|---------------------------------------|---7---7---7---7---7---7---7---7--|
E|----0000------0000-----0000-----0000---|-00--00--00--00--00--00--00--00---|
                                            |-| |-| |-| |-| |-| |-| |-| |----|
                                             T   T   T   T   T   T   T   T
G|---------------------------------------|
D|---------------------------------------|
A|--7-7-7-7-7-7-7-7-7-7-7-7-7-7----------|
E|-------------------------------5--4--3-|

G|---------------------------------|
D|---------------------------------|
A|---------------------------------|
E|-0-0-0-0-0-0-0-0-0-0-0-0-0-0-0-0-|

          End Fig 1, play (x4)        Fig 2
G|--------------------------|-----------------------------------|
D|--------------------------|-----------------------------------|
A|--------------------------|-----------------------------------|
E|-0-0-0-0-0-0-0-0-5--4--3--|---0-0-0-0-0-0-0-0-0-0-0-0-0-0-0-0-|

End Fig 2, play (x4)
G|---------------------------------|
D|---------------------------------|
A|---------------------------------|
E|-0-0-0-0-0-0-0-0-0-0-0-0-0-0-3---|

[Verses]
End Fig 2, play (x4)
G|---------------------------------|
D|---------------------------------|
A|---------------------------------|
E|-0-0-0-0-0-0-0-0-0-0-0-0-0-0-3---|

[Chorus]
G|-------------------|-------------------------|
D|-------------------|-------------------------|
A|-3-3-333-3-3-3-2-0-|-------------------------|
E|-------------------|--022--222-222-222-220---|
       |-|                   |-| |-| |-| |-|
        T                     T   T   T   T

(Whole note rest for cry out)
(James screams, "Whiplash!")

End Fig 1, play (x2)        Fig 2
G|--------------------------|-----------------------------------|
D|--------------------------|-----------------------------------|
A|--------------------------|-----------------------------------|
E|-0-0-0-0-0-0-0-0-5--4--3--|---0-0-0-0-0-0-0-0-0-0-0-0-0-0-0-0-|

[Bridge and Guitar Solo]                     (x12)
G-------------|-----------------------|-----------------------|
D-------------|-o---------------------|-----------------------|
A-5-4-3-------|-o-7p5---5---5---------|-7p5---5---5-----------|
E-------5-4-3-|-------7---7---0-0-0-0-|-----7---7---0-0-0-0---|

G|-----------|
D|-----------|
A|-----------|
E|-0~--0-----|

End Fig 1, play (x4)        Fig 2
G|--------------------------|-----------------------------------|
D|--------------------------|-----------------------------------|
A|--------------------------|-----------------------------------|
E|-0-0-0-0-0-0-0-0-5--4--3--|---0-0-0-0-0-0-0-0-0-0-0-0-0-0-0-0-|

[Verse]
End Fig 2, play (x4)
G|---------------------------------|
D|---------------------------------|
A|---------------------------------|
E|-0-0-0-0-0-0-0-0-0-0-0-0-0-0-3---|

[Chorus] (x3)
G|-------------------|-------------------------|
D|-------------------|-------------------------|
A|-3-3-333-3-3-3-2-0-|-------------------------|
E|-------------------|--022--222-222-222-220---|
       |-|                   |-| |-| |-| |-|
        T                     T   T   T   T

[Outro]
G|-------------------|---------------------|
D|-------------------|---------------------|
A|-------------------|---------------------|
E|---0-2-2-2-0-2-0---|---0-2-2-2-0-2-0-----|
       |---|               |---------------|
         T                   T

G|---------------------------------------------------------------------|
D|---------------------------------------------------------------------|
A|---------------------------------------------------------------------|
E|---0-2-2-2-0-2-0-------0-2-2-2-0-2-0~-------------0-2-2-2-0-2-2------| 
       |---|               |---|                      |----------------|
         T                   T                          T

************************************

| p  Pull-off
| ~  Vibrato

************************************
Suggest correction
Creating personal tab
Creating personal tab
You can edit any tab online and save it as your Personal.

You can edit, replace or remove any tab part or add personal notes – all changes will be seen only by you.

Personal tabs can be accessed anytime from any device, even offline.
Learn more »
comments
print report bad tab
guest
You may want to rate the tab now too:
select rating
Wanna post a correction for this tab? Suggest correction