Oops, an error
Loading. Please wait.

Whiplash Tab

version 4
version 4

Whole song

Interactive

848 views 1 this week
1 commentread comment
1 2 3 4 5
please rate
add to favorites
launch autoscroll
font size
0
reset
how to read this tab
guitar tuner
Autoscroll
slow
fast
+/-
esc
set tempo
stop
Help us to improve Ultimate-Guitar.com Take our survey!
×
Contributor
Difficulty
intermediate
                         WHIPLASH
Intro

e---------------------------------------------------------|
B---------------------------------------------------------|
G-----9-9-9-9---------------------------------------------|
D-----9-9-9-9---------------------------------------------|  4X
A-----7-7-7-7---------------------------------------------|
E---------------------------------------------------------|

e----------------------------------------------------------|
B----------------------------------------------------------|
G-----9-----------------------9--------9------9----------9-|
D-----9-----let ring----------9--------9------9----------9-|
A-----7-----------------------7--------7------7----------7-|
E----------------------------------------------------------|

riff 1

e---------------------------------------------------------|
B---------------------------------------------------------|
G---------------------------------------------------------|
D---------------------------------7--6--5-----------------|
A---------------------------------7--6--5-----------------|
E--0-0-0-0-0-0-0-0-0-0-0-0-0-0-0--------------------------|

verse

e---------------------------------------------------------|
B---------------------------------------------------------|
G---------------------------------------------------------|
D---------------------------------5-----------------------|
A---------------------------------5-----------------------|
E--0-0-0-0-0-0-0-0-0-0-0-0-0-0-0--------------------------|

chours

e---------------------------------------------------------|
B---------------------------------------------------------|
G---------------------------------------------------------|
D--5--5-4-2-----------------------------------------------|
A--3--3-2-0-----4-4-4-4-4-4-4-4---------------------------|
E-------------0h2-2-2-2-2-2-2-2---------------------------|

bridge
                               8X
e-----------------|--------------------------------|------|
B-----------------|--------------------------------|------|
G-7-6-5--------- -|--------------------------------|------|
D-7-6-5--7-6-5----|------------5-----5-------------|------|
A--------7-6-5----|-----7p5-----5-----5------------|------|
E-----------------|----------7-----7------0-0-0-0--|------|

solo

e--15p14p12-----15p14p12------17p15p12-------17p15p12-----|
B-----------15-------------15------------12------------17-|  3X
G---------------------------------------------------------|
D---------------------------------------------------------|
A---------------------------------------------------------|
E---------------------------------------------------------|

e--17b----------------------------------------------------|
B------15b------------12----12-----12----12-14-------12---|
G----------14b--------12----12-----12----12-14---14-------|
D--------------12--14----14-----14----14------------------|
A---------------------------------------------------------|
E---------------------------------------------------------|

e--------------12h15p12-----------------------------------|
B-----12h15p12-----------15--12-------15p12---------------|
G--14------------------------14b-14b--------14/12---------|
D---------------------------------------------------------|
A---------------------------------------------------------|
E---------------------------------------------------------|

e---------------------------------------------------------|
B---------------------------------------------------------|
G--2b-2b-2b-----2b-0-2--2p0-2p0-4p0-4p0-5p0-5p0-4p0-4p0---|
D-----------2-2-------------------------------------------|
A---------------------------------------------------------|
E---------------------------------------------------------|

e---------------------------------------------------------|
B---------------------------------------------------------|
G--5p0-5p0-7p0-7p0-9p0-9p0-7p0-7p0-9p0-9p0-10p0-10p0------|
D---------------------------------------------------------|
A---------------------------------------------------------|
E---------------------------------------------------------|

e---------------------------------------------------------|
B-----------------------------------------------7---------|
G--12p0-12p0-10p0-10p0-9p0-9p0-7p0-7p0--9b-9b-9-----------|
D---------------------------------------------------------|
A---------------------------------------------------------|
E---------------------------------------------------------|

e---------------10p7----------7-7-------------------------|
B--10p7---10p7----------10p7--7-7-10p7--------------------|
G-------7------------7-----------------9p7----------------|
D------------------------------------------9p7-----9p7----|
A-----------------------------------------------9---------|
E---------------------------------------------------------|

e---------------------------------------------------------|
B---------------------------------------------------------|
G-------------------------------12h14p12-----------14-----|
D----------------------12h14p12-----------12-14p12--------|
A---------12-12-12-14-------------------------------------|
E--7-7/14-------------------------------------------------|

e--------------12--15p12----------------------------------|
B-----------12-----------15-12-15b-15r--------------------|
G--14p12-14-----------------------------------------------|
D---------------------------------------------------------|
A---------------------------------------------------------|
E---------------------------------------------------------|

e--12--12-12-12-15p12-15p12-------12-12-12-12--12-12--12--|
B--15b----15b---------------15p12----------15b----15b-----|
G---------------------------------------------------------|
D---------------------------------------------------------|
A---------------------------------------------------------|
E---------------------------------------------------------|

e-15p12---------------3p1p0-3p1p0-3p1p0-5p3p0-6p4p0-6p4p0-|
B-------15p12---------------------------------------------|
G-------------14p12---------------------------------------|
D---------------------------------------------------------|
A---------------------------------------------------------|
E---------------------------------------------------------|

e-7p5p0-8p6p0-9p7p0-9p7p0-10p8p0-12p10p0-14p12p0-15p13p0--|
B---------------------------------------------------------|
G---------------------------------------------------------|
D---------------------------------------------------------|
A---------------------------------------------------------|
E---------------------------------------------------------|

e-16p14p0-18p16p0-18p16p0-19p17p0-19p17p0-20p18p0-21p19p0-|
B---------------------------------------------------------|
G---------------------------------------------------------|
D---------------------------------------------------------|
A---------------------------------------------------------|
E---------------------------------------------------------|

e-21p19p0-22p20p0-22b-22b---------------------------------|
B---------------------------------------------------------|
G---------------------------------------------------------|
D---------------------------------------------------------|
A---------------------------------------------------------|
E---------------------------------------------------------|

outro
      5X
e-|--------------|----------------------------------------|
B-|--------------|----------------------------------------|
G-|--------------|----------------------------------------|
D-|--------------|----------------------------------------|
A-|-4-4-4-4-4-4--|-2-4------------------------------------|
E-|-2-2-2-2-2-2--|-0-2------------------------------------|



h= hammer on
p= pull off


Song order:

intro
riff 1 (8X)
verse (8X)
chours (3X)
riff 1 (4X)
verse (4X)
chours (3X)
riff 1 (4X)
verse (4X)
chours (3X)
bridge
solo (second guitar starts after he says whiplash and plays riff 1 4X)
verse (4X)
chours (3X)
outro
comments
We did not receive enough feedback on this tab! Please rate:
print report bad tab
1 2 3 4 5
1 comment total.
0 reply
destess 18 wrote on February 16 2016, 09:22 pm

Missing a lot of notes, inaccurate, and incomplete. The tab has a somewhat accurate basis though. Needs a lot of work before it gets to be a higher rating.

I want to post or [tab]
guest
You may want to rate the tab now too:
select rating
Please do not post tabs as comments. Select "correction" instead!