Oops, an error
Loading. Please wait.
We have Chord Pro version of Whiskey In The Jar.
It's the closest thing you can get to the original song and it has interactive parts. Check out the tab »
×
506,938 views 570 this week
25 commentsread comments
1 2 3 4 5
x 38
add to favorites
launch autoscroll
font size
0
reset
how to read this tab
guitar tuner
backing track
0:00
0:00
Autoscroll
slow
fast
+/-
esc
set tempo
stop
   Kirk
e|------------------------------------------------------------|
B|------------------------------------------------------------|
G|------------------------------------------------------------|
D|--5-4-2--2-2--2-2--2-2-5--5-5--5-5--5-5-4--2--2-2--2-2--2-2-|
A|--5-4-2--2-2--2-2--2-2-5--5-5--5-5--5-5-4--2--2-2--2-2--2-2-|
E|--3-2-0--0-0--0-0--0-0-3--3-3--3-3--3-3-2--0--0-0--0-0--0-0-|


   James
e|-------------------------            ---------7----7------------------------------|
B|----------8---7----------            ----8-10---10---10-8--8-10-8~~---------------|
G|---7-7--7---9---7-9/12~~~            7-9------------------------------------------|
D|-------------------------            -------------------------------0-5-2-4-0-----|
A|-------------------------            -----------------------------------------2---|
E|-------------------------            -------------------------------------------3-|


  2)
e|------------------------------------------------------------------------|
B|------------------------------------------------------------------------|
G|------------------------------------------5--5-5--5-5--5-5--------------|
D|--5-5--5-5--5-5--5-5--4-2--2-2--2-2--2-2--5--5-5--5-5--5-5--5--5-5--5-5-|
A|--5-5--5-5--5-5--5-5--4-2--2-2--2-2--2-2--3--3-3--3-3--3-3--5--5-5--5-5-|
E|--3-3--3-3--3-3--3-3--2-0--0-0--0-0--0-0--------------------3--3-3--3-3-|
"As I was walking over"


   James
e|--5--5-5--5-5-4-3--3-3--3-3--3-3------|
B|--7--7-7--7-7-6-5--5-5--5-5--5-5------|
G|--7--7-7--7-7-6-5--5-5--5-5--5-5------|
D|--7--7-7--7-7-6-5--5-5--5-5--5-5----5-|
A|--5--5-5--5-5-4-3--3-3--3-3--3-3----5-|
E|------------------------------------3-|

   Kirk
e|--2-------2---3-----2----------------3-----0---------------3-----0-----|
B|--3-----3---3---3-----3----------1-----1-----1---------1-----1-----1---|
G|--2---2-----------2-----2------0---0-----0-----0-----0---0-----0-----0-|
D|--0-0------------------------2---------------------2-------------------|
A|---------------------------3---------------------3---------------------|
E|-----------------------------------------------------------------------|
"Sha rhem abaduba bla...there's whiskey in the Jar-o"


   Kirk
e|--3---0---0--3-|
B|--3---0---1--3-|
G|--0---0---0--0-|
D|--0---2---2--0-|
A|--2---2---3--2-|
E|--3---0------3-|

 James
F|---------------------------------------------7-7-7-7-7-|
C|------------------------------------5--------7-7-7-7-7-|
G|--5--5-5-5-5-5/7--5/7-7/5-5/3---2-3---3---5--5-5-5-5-5-|
D|-------------------------------------------------------|
"But me, I like sleepin'"

  solo
e|7--8--10--8--7h8p7-----7------------|---------7h-8--5/10----7--10--|
B|-------------------10-----10--8--7--|--8--10-----------------------|
G|------------------------------------|------------------------------|
D|------------------------------------|------------------------------|
A|------------------------------------|------------------------------|
E|------------------------------------|------------------------------|

e|--10h12~--12--10--12--------14b--|--12----10----12--10--12------7---10----|
B|--------------------------x------|----------------------------------------|
G|------------------------x--------|----------------------------------------|
D|---------------------------------|----------------------------------------|
A|---------------------------------|----------------------------------------|
E|---------------------------------|----------------------------------------|

e|--8----7----5-------------------|--8p7-5-----------------------|
B|-----------------8----6----5----|--------8---6--5--------------|
G|--------------------------------|--------------------7----5----|
D|--------------------------------|------------------------------|
A|--------------------------------|------------------------------|
E|--------------------------------|------------------------------|

e|----------------------|--------------7--8--|--10--8--7h8p7-----7------------|
B|----------------------|--------------------|---------------10-----10--8--7--|
G|--4r---4r---4r---4r---|--------------------|--------------------------------|
D|----------------------|--------------------|--------------------------------|
A|----------------------|--------------------|--------------------------------|
E|----------------------|--------------------|--------------------------------|

e|---------7--8--8/10-------10--|--10-12~--12--10--12--14b-----|
B|--8--10---------------12------|------------------------------|
G|------------------------------|------------------------------|
D|------------------------------|------------------------------|
A|------------------------------|------------------------------|
E|------------------------------|------------------------------|

e|--12----10----12--10--12--------10--|--8----7----5-------------------|
B|----------------------------12------|-----------------8----6----5----|
G|------------------------------------|--------------------------------|
D|------------------------------------|--------------------------------|
A|------------------------------------|--------------------------------|
E|------------------------------------|--------------------------------|

e|----------7h8----10-----12----|--------------------------------|
B|--5h6p5-8-----5/-----5/-------|--------------------------------|
G|------------------------------|--12~---12~---12----12----12----|
D|------------------------------|--12~---12~---14----12----10----|
A|------------------------------|--------------------------------|
E|------------------------------|--------------------------------|

e|----------------------------|-------------------------------|
B|-------------------------8--|--10b---10b-10r---10p8----8h10-|
G|--12--12--12----------9-----|-----------------------9-------|
D|--9---10--12----------------|-------------------------------|
A|----------------------------|-------------------------------|
E|----------------------------|-------------------------------|

e|------------------------|-----------------------------|
B|--8~---8-----8----------|-----------------------------|
G|----------9-----7----6--|--5~---7--5--9----7/---10----|
D|------------------------|-----------------------------|
A|------------------------|-----------------------------|
E|------------------------|-----------------------------|

e|------------------------12----|----------------------------|
B|-----8-------10----8----------|--8--8~---8--8--------------|
G|--9-------9-------------------|------------------9----9----|
D|------------------------------|----------------------------|
A|------------------------------|----------------------------|
E|------------------------------|----------------------------|

e|--------------------------------|----------------------15h17p15h17p15----|
B|--8-----------------------------|----------------15h17----------------17-|
G|--9----9----9----9/-12--12/-14--|--12----12h-14--------------------------|
D|--------------------------------|----------------------------------------|
A|--------------------------------|----------------------------------------|
E|--------------------------------|----------------------------------------|

e|--15----15-------------------||
B|-----------------------------||
G|-----------------------------||
D|-----------------------------||
A|-----------------------------||
E|-----------------------------||



************************************
| x  Dead note
| h  Hammer-on
| p  Pull-off
| r  Release
| b  Bend
| /  Slide up
| ~  Vibrato
************************************
Suggest correction
comments
print report bad tab
25 comments total. Showing first comments.
0 reply
Bludspring 10 Apr 25, 2003 08:00 PM

Is it standard tuning or full step down?

0 reply
Bludspring 10 Apr 25, 2003 08:00 PM

Is it standard tuning or full step down?

0 reply
Oswald 10 Oct 14, 2003 08:00 PM

They often use the Eb
Bb
Gb
Db
Ab
Eb

guest
You may want to rate the tab now too:
select rating
Wanna post a correction for this tab? Suggest correction