Oops, an error
Loading. Please wait.
We have Chord Pro version of Whiskey In The Jar.
It's the closest thing you can get to the original song and it has interactive parts. Check out the tab »
×
13,094 views 1 this week
1 commentread comment
1 2 3 4 5
x 4
add to favorites
×
Save as Personal and add changes to this tab that will be seen only by you. Learn more ›
×
You can save this tab as Personal to edit and correct it or add notes. All changes will be seen only by you. Learn more »
launch autoscroll
font size
0
reset
how to read this tab
guitar tuner
backing track
0:00
0:00
edit
Autoscroll
slow
fast
+/-
esc
set tempo
stop
Author
METALLICA
WHISKEY IN THE JAR


1a) Kirk
d|--------------------------------------------------------------------| x2
A|--------------------------------------------------------------------|
F|--4-3--------------------------4-4-4--4-4-4--4-4-4--4---------------|
C|--5-4-2-2--2-2-2--2-2-2—-2-2-2-5-5-5--5-5-5--5-5-5--5---------------|
G|--5-4-2-2--2-2-2--2-2-2--2-2-2-5-5-5--5-5-5--5-5-5--5---------------|
D|------0-0--0-0-0--0-0-0--0-0-0--------------------------------------|


1b) James
d|--------------------------| x3    |--------------------------|
A|----------8---7-----------|       |--------------------------|
F|-----77-7---7---7-9/12~~--|       |--------------------------|
C|--------------------------|       |--------------------------|
G|--------------------------|       |--00-0/4-0-2-0-0/2\0------|
D|--------------------------|       |--------------------------|


2) Riff 1   2x
d|---------------------------------------------------------------------| 
A|---------------------------------------------------------------------|
F|--4-4--4-4-4--4-4-4--4-4-4----------------------------5-5-5--5-5-5---|
C|--5-5--5-5-5--5-5-5--5-5-5-2-2-2--2-2-2--2-2-2--2-2-2-5-5-5--5-5-5---|
G|--5-5--5-5-5--5-5-5--5-5-5-2-2-2--2-2-2--2-2-2--2-2-2-3-3-3--3-3-3---|
D|---------------------------0-0-0--0-0-0--0-0-0--0-0-0----------------|
 As I was going over...

d|---------------------------------------------------------------------|
A|---------------------------------------------------------------------|
F|--5-5-5--5-5-5--4-4-4--4-4-4--4-4-4----------------------------------|
C|--5-5-5--5-5-5--5-5-5--5-5-5--5-5-5----------------------------------|
G|--3-3-3--3-3-3--5-5-5--5-5-5--5-5-5----------------------------------|
D|---------------------------------------------------------------------|

3a) Kirk
d|--------------------------------------------------------------------| x2
A|--------------------------------------------------------------------|
F|--4-3--------------------------4-4-4--4-4-4--4-4-4--4---------------|
C|--5-4-2-2--2-2-2--2-2-2—-2-2-2-5-5-5--5-5-5--5-5-5--5---------------|
G|--5-4-2-2--2-2-2--2-2-2--2-2-2-5-5-5--5-5-5--5-5-5--5---------------|
D|------0-0--0-0-0--0-0-0--0-0-0--------------------------------------|


3b) James
d|-----------------------| x2  |---------------------------------------|
A|-------8---7-----------|     |-----8-10/12-12--10/12-12--10-8--8/10-8|
F|--77-7---7---7-9/12~~--|     |-7-9-----------------------------------|
C|-----------------------|     |---------------------------------------|
G|-----------------------|     |---------------------------------------|
D|-----------------------|     |---------------------------------------|


d|-----------------------|
A|-----------------------|
F|-----------------------|
C|-----------------------|
G|--4-0--2-0--0/2\0------|
D|-----------------------|



4) Riff 1   2x
d|---------------------------------------------------------------------|
A|---------------------------------------------------------------------|
F|--4-4--4-4-4--4-4-4--4-4-4----------------------------5-5-5--5-5-5---|
C|--5-5--5-5-5--5-5-5--5-5-5-2-2-2--2-2-2--2-2-2--2-2-2-5-5-5--5-5-5---|
G|--5-5--5-5-5--5-5-5--5-5-5-2-2-2--2-2-2--2-2-2--2-2-2-3-3-3--3-3-3---|
D|---------------------------0-0-0--0-0-0--0-0-0--0-0-0----------------|
 I took all of his...

d|---------------------------------------------------------------------|
A|---------------------------------------------------------------------|
F|--5-5-5--5-5-5--4-4-4--4-4-4--4-4-4----------------------------------|
C|--5-5-5--5-5-5--5-5-5--5-5-5--5-5-5----------------------------------|
G|--3-3-3--3-3-3--5-5-5--5-5-5--5-5-5----------------------------------|
D|---------------------------------------------------------------------|


5a) James
d|--5-5-5-5-5-5-5-4-3-3-3-3-3-3-3------|
A|--7-7-7-7-7-7-7-6-5-5-5-5-5-5-5------|      
F|--7-7-7-7-7-7-7-6-5-5-5-5-5-5-5-4-4-4|
C|--7-7-7-7-7-7-7-6-5-5-5-5-5-5-5-5-5-5|
G|--------------------------------5-5-5|
D|-------------------------------------|

5b) Kirk 
d|--5-5-5-5-5-5-5--3------------------|
A|--7-7-7-7-7-7-7--5-----5---6-----5--|
F|--7-7-7-7-7-7-7--5---5---5---5-----4|
C|--7-7-7-7-7-7-7--5-5-----------5---5|
G|--5-5-5-5-5-5-5--3-----------------5|
D|------------------------------------|
 Musha ring dum a doo...       Whiskey in the jar-o

6a) Kirk
d|--------------------------------------------------------------------| x2
A|--------------------------------------------------------------------|
F|--4-3--------------------------4-4-4--4-4-4--4-4-4--4---------------|
C|--5-4-2-2--2-2-2--2-2-2—-2-2-2-5-5-5--5-5-5--5-5-5--5---------------|
G|--5-4-2-2--2-2-2--2-2-2--2-2-2-5-5-5--5-5-5--5-5-5--5---------------|
D|------0-0--0-0-0--0-0-0--0-0-0--------------------------------------|


6b) James
d|-----------------------| x2  |---------------------------------------|
A|-------8---7-----------|     |-----8-12\10-8--8-8/10\8---------------|
F|--77-7---7---7-9/12~~--|     |-7-9-----------------------------------|
C|-----------------------|     |---------------------------------------|
G|-----------------------|     |---------------------------------------|
D|-----------------------|     |---------------------------------------|


d|-----------------------|
A|-----------------------|
F|-----------------------|
C|-----------------------|
G|--4\0--2-0-0-0/2\0-----|
D|-----------------------|



7a) Riff 1    2x
d|---------------------------------------------------------------------| 
A|---------------------------------------------------------------------|
F|--4-4--4-4-4--4-4-4--4-4-4----------------------------5-5-5--5-5-5---|
C|--5-5--5-5-5--5-5-5--5-5-5-2-2-2--2-2-2--2-2-2--2-2-2-5-5-5--5-5-5---|
G|--5-5--5-5-5--5-5-5--5-5-5-2-2-2--2-2-2--2-2-2--2-2-2-3-3-3--3-3-3---|
D|---------------------------0-0-0--0-0-0--0-0-0--0-0-0----------------|
 Being drunk and weary...

d|---------------------------------------------------------------------|
A|---------------------------------------------------------------------|
F|--5-5-5--5-5-5--4-4-4--4-4-4--4-4-4----------------------------------|
C|--5-5-5--5-5-5--5-5-5--5-5-5--5-5-5----------------------------------|
G|--3-3-3--3-3-3--5-5-5--5-5-5--5-5-5----------------------------------|
D|---------------------------------------------------------------------|

7b)
d|---------------------------------------------------------------------|  x2
A|---------------------------------------------------------------------|
F|--3/5-3-3-3/5-3----3/5-5-5-5/7-5---------------------7/9-7-7/9-7-----|
C|----------------5-----------------12-12-15-15-12-12------------------|
G|---------------------------------------------------------------------|
D|---------------------------------------------------------------------|

8a) James
d|--5-5-5-5-5-5-5-4-3-3-3-3-3-3-3------|
A|--7-7-7-7-7-7-7-6-5-5-5-5-5-5-5------|      
F|--7-7-7-7-7-7-7-6-5-5-5-5-5-5-5-4-4-4|
C|--7-7-7-7-7-7-7-6-5-5-5-5-5-5-5-5-5-5|
G|--------------------------------5-5-5|
D|-------------------------------------|

8b) Kirk 
d|--5-5-5-5-5-5-5--3------------------|
A|--7-7-7-7-7-7-7--5-----5---6-----5--|
F|--7-7-7-7-7-7-7--5---5---5---5-----4|
C|--7-7-7-7-7-7-7--5-5-----------5---5|
G|--5-5-5-5-5-5-5--3-----------------5|
D|------------------------------------|
 Musha ring dum a doo...       Whiskey in the jar-o


----------------------
-  SOLO 
----------------------
d|--7-8-10-8-7h8p7----7-------------7-8-10--8-10-10/12-12-10-12-12/15--|
A|-----------------10---10-8-7-8-10------------------------------------|
F|---------------------------------------------------------------------|
C|---------------------------------------------------------------------|
G|---------------------------------------------------------------------|
D|---------------------------------------------------------------------|

d|--12-10-12-10-12--7-10--8-7-5-------8\7\5----------------------------|
A|-----------------------------8-6-5---------8-6-5--7--4~~~~-----------|
F|---------------------------------------------------------------------|
C|---------------------------------------------------------------------|
G|---------------------------------------------------------------------|
D|---------------------------------------------------------------------|



d|--7-8-10-8-7h8p7----7-------------7-8-10--8-10-10/12-12-10-12-12/15--|
A|-----------------10---10-8-7-8-10------------------------------------|
F|---------------------------------------------------------------------|
C|---------------------------------------------------------------------|
G|---------------------------------------------------------------------|
D|---------------------------------------------------------------------|


d|--12-10-12-10-12--7-10--8-7-5----------------7---10--12~~------------|
A|-----------------------------8-6-5--5h6p5-8----5---5-----------------|
F|---------------------------------------------------------------------|
C|---------------------------------------------------------------------|
G|---------------------------------------------------------------------|
D|---------------------------------------------------------------------|


d|------------------------------------------------------------12-------|
A|---8-8h10-10-10p8--8h10-8-----8----------------------8--10-----8-----|
F|--9---------------9--------7h9--7-6-5--7-5-9-5-10--9---9--9----------|
C|---------------------------------------------------------------------|
G|---------------------------------------------------------------------|
D|---------------------------------------------------------------------|


d|----------------15h17p15h17p15---------------------------------------|
A|---------15/17-------------------------------------------------------|
F|--12/14--------------------------------------------------------------|
C|---------------------------------------------------------------------|
G|---------------------------------------------------------------------|
D|---------------------------------------------------------------------|




9)
d|------------------------| x2 d|--------------------------------------|
A|------------------------|    A|--------------------------------------|
F|-------7---6------------|    F|--------------------------------------|
C|--77-7---7---7-9/12~~~--|    C|--7-9-7-9h11-9h11-9h11-9h11-11p9-7/9-7|
G|------------------------|    G|--------------------------------------|
D|------------------------|    D|--------------------------------------|

d|-----------------------|
A|-----------------------|
F|-----------------------|
C|-----------------------|
G|--0-4-0-2-0--0-0/2-0---|
D|-----------------------|


10)
d--3---0---0--3
A--3---0---1--3
F--0---0---0--0
C--0---2---2--0
G--2---2---3--2
D--3---0------3
"Well some men like a-fishin'"

            
            
Suggest correction
Creating personal tab
Creating personal tab
You can edit any tab online and save it as your Personal.

You can edit, replace or remove any tab part or add personal notes – all changes will be seen only by you.

Personal tabs can be accessed anytime from any device, even offline.
Learn more »
comments
print report bad tab
1 comment total.
0 reply
Shagbunny 10 Apr 30, 2008 02:52 AM

is there any way you can play this without having to tune. My guitar doesn't take that too well unfortunately.
I'm finding it hard to find songs at my level that aren't tuned down so ANY suggestions will be appreciated

guest
You may want to rate the tab now too:
select rating
Wanna post a correction for this tab? Suggest correction