Oops, an error
Loading. Please wait.

Whisky In The Jar bass

31,914 views 24 this week
no commentswrite comment
1 2 3 4 5
3 more votes to show rating
add to favorites
×
Save as Personal and add changes to this tab that will be seen only by you. Learn more ›
×
You can save this tab as Personal to edit and correct it or add notes. All changes will be seen only by you. Learn more »
launch autoscroll
font size
0
reset
guitar tuner
edit
Autoscroll
slow
fast
+/-
esc
set tempo
stop
                  Whiskey In The Jar                    


                                               Metallica
Bass (Jason)

Tuning: D standard


     W                   E  E  E  E  E  E  E  E   
F||-------------------|--------------------------|
C||-------------------|--------------------------|
G||-------------------|--------------------------|
D||-------------------|--0--0--0--0--0--0--0--0--|


  E  E  E  E  E  E  E  E     E  E  E  E  E  E  E  E   
--------------------------|--------------------------|
--------------------------|--------------------------|
--------------------------|--------------------------|
--0--0--0--0--0--0--0--2--|--3--3--3--3--3--3--3--3--|


  E  E  E  E  Q    E   E     E  E  E  E  E  E  E  E   
--------------------------|--------------------------|
--------------------------|--------------------------|
--------------------------|--------------------------|
--3--3--3--3--3----2p--0--|--0--0--0--0--0--0--0--0--|


  E  E  E  E  E  E  E  E     E  E  E  E  E  E  E  E   
--------------------------|--------------------------|
--------------------------|--------------------------|
--------------------------|--------------------------|
--0--0--0--0--0--0--0--2--|--3--3--3--3--3--3--3--3--|


  E  E  E  E  E  E  E  E     E  E  E  E  E  E  E  E   
--------------------------|--------------------------|
--------------------------|--------------------------|
--------------------------|--------------------------|
--3--3--3--3--3--3--3--0--|--3--3-----3--3-----3--3--|


  E  E  E  E  E  E  T  S. E   
-----------------------------|
-----------------------------|
--------------------------5--|
--3--3-----3--3-----5S-7-----|


  E  E  E  E  E  E  E  E     E  E  E  E  E  E  E  E   
--------------------------|--------------------------|
--------------------------|--------------------------|
--7--7-----7--7--7-----7--|--7--7-----7--7--7-----5--|
--------------------------|--------------------------|


  E  E  E  E  E  E  E  E     E  E  E  E  E  E  E  E   
--------------------------|--------------------------|
--------------------------|--------------------------|
--3--3-----3--3--3-----3--|--3--3-----3--3--3--------|
--------------------------|-----------------------5--|


  E  E  E  E  E  E  E  E     E  E  E  E  E  E  E  E   
--------------------------|--------------------------|
--------------------------|--------------------------|
--------------------------|--------------------------|
--3--3-----3--3--3-----3--|--3--3-----3--3--3--2--2--|


  E  E  E  E  E  E  E  E   
--------------------------|
--------------------------|
--------------------------|
--3--3-----3--3--3-----3--|


  E  E  E  E  E  E  T  S. E   
-----------------------------|
-----------------------------|
--------------------------5--|
--3--3-----3--3--3--5S-7-----|


  E  E  E  E  E  E  E  E     E  E  E  E  E  E  E  E   
--------------------------|--------------------------|
--------------------------|--------------------------|
--7--7-----7--7--7-----7--|--7--7-----7--7--7-----5--|
--------------------------|--------------------------|


  E  E  E  E  E  E  E  E     E  E  E  E  E  E  E  E   
--------------------------|--------------------------|
--------------------------|--------------------------|
--3--3-----3--3--3-----3--|--3--3-----3--3--3--------|
--------------------------|-----------------------5--|


  E  E  E  E  E  E  E  E     E  E  E  E  Q    Q     
--------------------------|------------------------|
--------------------------|------------------------|
--------------------------|------------------------|
--3--3-----3--3--3-----3--|--3--3-----3--5----2----|


  E  E  E  E  E  E  E  E     E  E  E  E  E  E  E  E   
--------------------------|--------------------------|
--------------------------|--------------------------|
--------------------------|--------------------------|
--0--0--0--0--0--0--0--0--|--0--0--0--0--0--0--0--2--|


  E  E  E  E  E  E  E  E     E  E  E  E  Q    E   E   
--------------------------|--------------------------|
--------------------------|--------------------------|
--------------------------|--------------------------|
--3--3--3--3--3--3--3--3--|--3--3--3--3--3----2p--0--|


  E  E  E  E  E  E  E  E     E  E  E  E  E  E  E  E   
--------------------------|--------------------------|
--------------------------|--------------------------|
--------------------------|--------------------------|
--0--0--0--0--0--0--0--0--|--0--0--0--0--0--0--0--2--|


  E  E  E  E  E  E  E  E     E  E  E  E  E  E  E  E   
--------------------------|--------------------------|
--------------------------|--------------------------|
--------------------------|--------------------------|
--3--3--3--3--3--3--3--3--|--3--3--3--3--3--3--3--0--|


  E  E  E  E  E  E  E  E   
--------------------------|
--------------------------|
--------------------------|
--3--3-----3--3--3-----3--|


  E  E  E  E  E  E  T  S. E   
-----------------------------|
-----------------------------|
--------------------------5--|
--3--3-----3--3--3--5S-7-----|


  E  E  E  E  E  E  E  E     E  E  E  E  E  E  E  E   
--------------------------|--------------------------|
--------------------------|--------------------------|
--7--7-----7--7--7-----7--|--7--7-----7--7--7-----5--|
--------------------------|--------------------------|


  E  E  E  E  E  E  E  E     E  E  E  E  E  E  E  E   
--------------------------|--------------------------|
--------------------------|--------------------------|
--3--3-----3--3--3-----3--|--3--3-----3--3--3--------|
--------------------------|-----------------------5--|


  E  E  E  E  E  E  E  E     E  E  E  E  E  E  E  E   
--------------------------|--------------------------|
--------------------------|--------------------------|
--------------------------|--------------------------|
--3--3-----3--3--3-----3--|--3--3-----3--3--3--2--2--|


  E  E  E  E  E  E  E  E   
--------------------------|
--------------------------|
--------------------------|
--3--3-----3--3--3-----3--|


  E  E  E  E  E  E  T  S. E   
-----------------------------|
-----------------------------|
--------------------------5--|
--3--3-----3--3--3--5S-7-----|


  E  E  E  E  E  E  E  E     E  E  E  E  E  E  E  E   
--------------------------|--------------------------|
--------------------------|--------------------------|
--7--7-----7--7--7-----7--|--7--7-----7--7--7-----5--|
--------------------------|--------------------------|


  E  E  E  E  E  E  E  E     E  E  E  E  E  E  E  E   
--------------------------|--------------------------|
--------------------------|--------------------------|
--3--3-----3--3--3-----3--|--3--3-----3--3--3--------|
--------------------------|-----------------------5--|


  E  E  E  E  E  E  E  E     E  E  E  E  E  E  E  E   
--------------------------|--------------------------|
--------------------------|--------------------------|
--------------------------|--------------------------|
--3--3-----3--3--3-----3--|--3--3-----3--3--5--7--5--|


  Q    E  E  E  E  E  E     E  E  E  E  E  E  E  E   
-------------------------|--------------------------|
-------------------------|--------------------------|
--5----5--5--5--5--5--5--|--5--5--5--5--5--5--7--5--|
-------------------------|--------------------------|


  Q    E  E  E  E  E  E     E  E  E  E  E  E   E  E   
-------------------------|---------------------------|
-------------------------|------------------------8--|
-------------------------|-----------------8--10-----|
--8----8--8--8--8--8--8--|--8--8--8--8--8------------|


   E   E   E   E   E   E   E   E   
----------------------------------|
--10--10--10--10--10--10--10--10--|
----------------------------------|
----------------------------------|


   E   E   E  E   E  E   Q      
-------------------------------|
--10--10--10--8----------------|
-----------------10--8---------|
------------------------10S----|


  E  E  E  E  E  E  E  E     E  E  E  E  Q    Q     
--------------------------|------------------------|
--------------------------|------------------------|
--------------------------|------------------------|
--3--3--3--3--3--3--3--3--|--3--3--3--0--3----2----|


  E  E  E  E  E  E  E  E     E  E  E  E  E  E  E  E   
--------------------------|--------------------------|
--------------------------|--------------------------|
--------------------------|--------------------------|
--0--0--0--0--0--0--0--0--|--0--0--0--0--0--0--0--2--|


  E  E  E  E  E  E  E  E     E  E  E  E  Q    E   E   
--------------------------|--------------------------|
--------------------------|--------------------------|
--------------------------|--------------------------|
--3--3--3--3--3--3--3--3--|--3--3--3--3--3----2p--0--|


  E  E  E  E  E  E  E  E     E  E  E  E  E  E  E  E   
--------------------------|--------------------------|
--------------------------|--------------------------|
--------------------------|--------------------------|
--0--0--0--0--0--0--0--0--|--0--0--0--0--0--0--0--2--|


  E  E  E  E  E  E  E  E     E  E  E  E  E  E  E  E   
--------------------------|--------------------------|
--------------------------|--------------------------|
--------------------------|--------------------------|
--3--3--3--3--3--3--3--3--|--3--3--3--3--3--3--3--0--|


  E  E  E  E  E  E  E  E   
--------------------------|
--------------------------|
--------------------------|
--3--3-----3--3--3-----3--|


  E  E  E  E  E  E  T  S. E   
-----------------------------|
-----------------------------|
--------------------------5--|
--3--3-----3--3--3--5S-7-----|


  E  E  E  E  E  E  E  E     E  E  E  E  E  E  E  E   
--------------------------|--------------------------|
--------------------------|--------------------------|
--7--7-----7--7--7-----7--|--7--7-----7--7--7-----5--|
--------------------------|--------------------------|


  E  E  E  E  E  E  E  E     E  E  E  E  E  E  E  E   
--------------------------|--------------------------|
--------------------------|--------------------------|
--3--3-----3--3--3-----3--|--3--3-----3--3--3--------|
--------------------------|-----------------------5--|


  E  E  E  E  E  E  E  E     E  E  E  E  E  E  E  E   
--------------------------|--------------------------|
--------------------------|--------------------------|
--------------------------|--------------------------|
--3--3-----3--3--3-----3--|--3--3-----3--3--3--2--2--|


  E  E  E  E  E  E  E  E   
--------------------------|
--------------------------|
--------------------------|
--3--3-----3--3--3-----3--|


  E  E  E  E  E  E  T  S. E   
-----------------------------|
-----------------------------|
--------------------------5--|
--3--3-----3--3--3--5S-7-----|


  E  E  E  E  E  E  E  E     E  E  E  E  E  E  E  E   
--------------------------|--------------------------|
--------------------------|--------------------------|
--7--7-----7--7--7-----7--|--7--7-----7--7--7-----5--|
--------------------------|--------------------------|


  E  E  E  E  E  E  E  E     E  E  E  E  E  E  E  E   
--------------------------|--------------------------|
--------------------------|--------------------------|
--3--3-----3--3--3-----3--|--3--3-----3--3--3--------|
--------------------------|-----------------------5--|


  E  E  E  E  E  E  E  E     E  E  E  E  E   E  E  E   
--------------------------|---------------------------|
--------------------------|---------------------------|
--------------------------|---------------------------|
--3--3-----3--3--3-----3--|--3--3-----3--3S--5--7--5--|


  Q    E  E  E  E  E  E     E  E  E  E  E  E  E  E   
-------------------------|--------------------------|
-------------------------|--------------------------|
--5----5--5--5--5--5--5--|--5--5--5--5--5--5--7--5--|
-------------------------|--------------------------|


  Q    E  E  E  E  E  E     E  E  E  E  E  E   E  E   
-------------------------|---------------------------|
-------------------------|------------------------8--|
--3----3--3--3--3--3--3--|--3--3--3--3--3--8--10-----|
-------------------------|---------------------------|


   E   E   E   E   E   E   E   E   
----------------------------------|
--10--10--10--10--10--10--10--10--|
----------------------------------|
----------------------------------|


   E   E   E  E   E  E   Q      
-------------------------------|
--10--10--10--8----------------|
-----------------10--8---------|
------------------------10S----|


  E  E  E  E  E  E  E  E     E  E  E  E  Q    Q     
--------------------------|------------------------|
--------------------------|------------------------|
--------------------------|------------------------|
--3--3--3--3--3--3--3--3--|--3--3--3--3--3----2----|


  E  E  E  E  E  E  E  E     E  E  E  E  E  E  E  E   
--------------------------|--------------------------|
--------------------------|--------------------------|
--------------------------|--------------------------|
--0--0--0--0--0--0--0--0--|--0--0--0--0--0--0--0--2--|


  E  E  E  E  E  E  E  E     E  E  E  E  E  E  E  E   
--------------------------|--------------------------|
--------------------------|--------------------------|
--------------------------|--------------------------|
--3--3--3--3--3--3--3--3--|--3--3--3--3--3--3--3--3--|


  E  E  E  E  E  E  E  E     E  E  E  E  E  E  E  E   
--------------------------|--------------------------|
--------------------------|--------------------------|
--------------------------|-----------------------5--|
--0--0--0--0--0--0--0--0--|--0--0--0--0--0--0--0-----|


  E  E  E  E  E  E  E  E   
--------------------------|
--------------------------|
--3--3--3--3--3--3--3--3--|
--------------------------|


  E  S S S S S S S S S S E  E   
-------------------------------|
-------------------------------|
--3--3-3-3-3-3-3-3-3-3-3-3--3--|
-------------------------------|


  E  E  E  E  E  E  E  E     E  E  E  E  E  E    Q      
--------------------------|----------------------------|
--------------------------|----------------------------|
--------------------------|----------------------------|
--3--3-----3--3--3-----3--|--3--3-----3--3--3S--10S----|


  Q    E  E  E  E  E  E     E  E  E  E  E  E  E  E   
-------------------------|--------------------------|
-------------------------|-----------------5--5-----|
--5----5--5--5--5--5--5--|--5--5--5--5--5--------5--|
-------------------------|--------------------------|


  Q    E  E  E  E  E  E     Q    E  E  E  E  E  E   
-------------------------|-------------------------|
-------------------------|-------------------------|
--3----3--3--L--3--5--3--|--3----3--3--3--3--2--3--|
-------------------------|-------------------------|


  E  E  E  E  E  E  E  E     E  E  E  E  E  E  E  E   
--------------------------|--------------------------|
--------------------------|--------------------------|
--3--3--3--3--L--3--3--3--|--3--3--3--0--3--3--3--5--|
--------------------------|--------------------------|


  Q    E  E  E  E  E  E     E  E  S S S S Q    Q     
-------------------------|--------------------------|
-------------------------|--------------------------|
-------------------------|--------------------------|
--3----3--3--3--3--3--3--|--3--3--0-0-2-2-3----2----|


  E  E  E  E  E  E  E  E     E  E  E  E  E  E  E  E   
--------------------------|--------------------------|
--------------------------|--------------------------|
--------------------------|--------------------------|
--0--0--0--0--0--0--0--0--|--0--0--0--0--0--0--0--2--|


  E  E  E  E  E  E  E  E     E  E  Q    E  E  E  E   
--------------------------|-------------------------|
--------------------------|-------------------------|
--------------------------|-------------------------|
--3--3--3--3--3--3--3--3--|--3--3--3----3--3--0--2--|


  H        Q.     E     H        Q    T S. E   
---------------------|------------------------|
---------------------|------------------------|
---------------------|---------------------5--|
--3--------3------3--|--L--------L----5-7-----|


  Q.     E  Q.     E     Q.     E  Q    E  E   
----------------------|-----------------------|
----------------------|-----------------------|
--7-------------------|-----------------7--5--|
---------0--0------0--|--0------0--0----------|


  H        Q    E  E     H        E  E  E  E   
----------------------|-----------------------|
----------------------|-----------------------|
--3--------3----3--0--|--3--------L--0--3--0--|
----------------------|-----------------------|


  Q.     E  Q.     E     H        Q    E  E   
----------------------|----------------------|
---------5--L---------|-----------5----------|
----------------------|----------------------|
--3----------------3--|--L-------------0--2--|


  Q.     E  E  E  Q       E  E  E  E  E  E  T  S. E   
-----------------------|-----------------------------|
-----------------------|-----------------------------|
-----------------------|--------------------------5--|
--3------3--3--3--3----|--3--3--3--3--L--3--5S-7-----|


  Q.     E  E  E  E  E     E  E  E  E  E  E  E  E   
------------------------|--------------------------|
------------------------|--------------------------|
--7------7--7--7--7--7--|--7--7--7--7--L--7--5--2--|
------------------------|--------------------------|


  Q.     E  Q.     E     Q    E  E  E  E  E  E   
----------------------|-------------------------|
----------------------|-------------------------|
--3------3--3------3--|--3----3--3--2--3--2--0--|
----------------------|-------------------------|


  E  E  E  E  E  E  E  E     E  E  E  E  E   E  E  E   
--------------------------|---------------------------|
--------------------------|---------------------------|
--------------------------|---------------------------|
--3--3--3--3--3--3--3--3--|--3--3--3--3--3S--5--7--5--|


   Q     E   E   E   E   E   E   
--------------------------------|
--------------------------------|
--17----17--17--17--17--17--17--|
--------------------------------|


   E   E   E   E   E   E   E   E   
----------------------------------|
----------------------------------|
--17--17--17--17--17--16--16--15--|
----------------------------------|


   S   E.   E   E   E   E   E   E   
-----------------------------------|
-----------------------------------|
--13h-15---15--15--15--15--15--15--|
-----------------------------------|


   E   E   E   E   E   E   E   E   
----------------------------------|
----------------------------------|
--15--15--15--15--15--15--15--15--|
----------------------------------|


   E   E   E   E   E   E   E   E   
----------------------------------|
----------------------------------|
--15--15--15--15--15--15--15--15--|
----------------------------------|


   E   E   E   E   E   E   Q      
---------------------------------|
---------------------------------|
--15--15--15--15--15--15---------|
--------------------------15S----|


  E  E  E  E  E  E  E  E     E  E  E  E  Q    Q     
--------------------------|------------------------|
--------------------------|------------------------|
--------------------------|------------------------|
--3--3--3--3--3--3--3--3--|--3--3--3--3--3----2----|


  E  E  E  E  E  E  E  E     E  E  E  E  E  E  E  E   
--------------------------|--------------------------|
--------------------------|--------------------------|
--------------------------|--------------------------|
--0--0--0--0--0--0--0--0--|--0--0--0--0--0--0--0--0--|


  E  E  E  E  E  E  E  E     E  E  E  E  E  E  E  E   
--------------------------|--------------------------|
--------------------------|--------------------------|
--------------------------|--------------------------|
--3--3--3--3--3--3--3--3--|--3--3--3--3--3--3--3--0--|


  E  E  E  E  E  E  E  E     E  E  E  E  E  E  E  E   
--------------------------|--------------------------|
--------------------------|--------------------------|
--------------------------|--------------------------|
--3--3--3--3--3--3--3--3--|--3--3--3--3--3--3--0--2--|


  E  E  E  E  E  E  E  E     E  E  E  E  E  E  E  E   
--------------------------|--------------------------|
--------------------------|--------------------------|
--------------------------|--------------------------|
--3--3--3--3--3--3--3--3--|--3--3--3--3--3--3--0--2--|


  E  E  E  E  E  E  E  E     E  E  E  E  E  E  E  E   
--------------------------|--------------------------|
--------------------------|--------------------------|
--------------------------|--------------------------|
--3--3--3--3--3--3--3--3--|--3--3--3--3--3--3--0--2--|


  E  E  E  E  E  E  E  E     E  E  E  E  E  E  E  E   
--------------------------|--------------------------|
--------------------------|--------------------------|
--------------------------|--------------------------|
--3--3--3--3--3--3--3--3--|--3--3--3--3--0--2--3--0--|


  W                    W                 
-------------------|--------------------|
-------------------|--------------------|
-------------------|--------------------|
--3----------------|---L----------------|


  W                   W                  
-------------------|-------------------||
-------------------|-------------------||
-------------------|-------------------||
--L----------------|--L----------------||




Duration Legend
---------------
W - whole
H - half
Q - quarter
E - 8th
S - 16th
T - 32nd
X - 64th
. - note dotted
|-n-|  - n-tuplets


Tablature Legend
----------------
L - tied note
x - dead note
g - grace note
(n) - ghost note
> - accentuded note
NH - natural harmonic
AH - artificial harmonic
TH - tapped harmonic
SH - semi harmonic
PH - pitch harmonic
h - hammer on
p - pull off
b - bend
br - bendRelease
pb - preBend
pbr - preBendRelease
brb - bendReleaseBend
\n/ - tremolo bar dip
\n - tremolo bar dive
-/n - tremolo bar Release up
/n\ - tremolo bar inverted dip
/n - tremolo bar return
-\n - tremolo bar Release down
S - shift slide
s - legato slide
/ -  slide into from below or out of upwards
\ -  slide into from above or out of downwards
~ - vibrato
W - wide vibrato
tr - trill
TP - tremolo picking
T - tapping
S - slap
P - pop
< - fade in
^ - brush up
v - brush down

            
            
Suggest correction
Creating personal tab
Creating personal tab
You can edit any tab online and save it as your Personal.

You can edit, replace or remove any tab part or add personal notes – all changes will be seen only by you.

Personal tabs can be accessed anytime from any device, even offline.
Learn more »
Give kudos to tab author, rate the tab!
1 2 3 4 5
comments
print report bad tab
guest
You may want to rate the tab now too:
select rating
Wanna post a correction for this tab? Suggest correction