Oops, an error
Loading. Please wait.

Escrito En Las Estrellas Bass Tab

28 views 1 this week
no commentswrite comment
1 2 3 4 5
3 more votes to show rating
add to favorites
launch autoscroll
font size
0
reset
guitar tuner
×
Best way to learn
"Escrito En Las Estrellas"
Autoscroll
slow
fast
+/-
esc
set tempo
stop
Hola a todos, aquí les dejo las notas en bajo esta canción espero que
les guste.

Intro: (Empieza la guitarra y luego entra el bajo con la batería)
G|-------------------------------------------------------------------|
D|-------------------------------------------------------------------|
A|-2-2-2-2-2-2-------5-5-5-5-5-5-----2-2-2-2-2-2------5-5-5-5-5-5----|
E|-------------5-5-5-------------5-5-------------5-5-5------------5-5|x2

G|-------------------------------------------------------------------|
D|-------------------------------------------------------------------|
A|---------------------------5-5-5-5-5-5--7-7-7-7--9-9-9-9-----------|
E|-3-3-3-3-3-3--7-7-7-7-7-7------------------------------------------|

G|-------------------------------------------------------------------|
D|-------------------------------------------------------------------|
A|-------------------------------------------------------------------|
E|-3-3-3-3-3-3--7-7-7-7-7-7?-5---------------------------------------|

Estrofa: (Entra en D)

D                                      B      A
Quisiera tenerte tan cerca y poder decir-----te
D                                  B            A
Tantas cosas bellas q solo mi corazón puede sentir por ti

G|---------------------------------------------------------|
D|------------------------7-5-4----------------------------|
A|-5-5-5-5-5-5-5-5-5-5----------7-5------------------------|
E|-------?------------------------------7-7-7--5-5-5-------|x2

G                                  D     A
Quisiera perderme contigo en el univer?so
G                                       D   A
Y jamás encontrar el camino de vuelta a ca-sa

Coro:

G          D       A        G
Tenerte conmigo será mi razón
           D     A     G
Para continuar y no caer
              D       A        G
Sanaste esa herida de mi corazón
          A
Eres más que una bendición

Puente:
G                 D
Quiero escribirte una canción
A                            B
que te hable de algo más que simplemente amor

G|------------------------------------------------------------------|
D|------------------------------------------------------------------|
A|----------------5-5-5---7-5-3-------------------------------------|
E|-3-3-3----5-7-8?--------------5-5-5----10-9-7-10-9-7--9-7-5-9-7-5-|


G                      D
Y en las estrellas tu nombre escribir
A                         B           A
Junto a la silueta de la luna con la luz del sol

G|----------------------------------------------------------|
D|----------------------------------------------------------|
A|--------------------5-5-5----7-5-3------------------------|
E|-3-3-3-----5-7-8?---------------------5-5-5--7-7-7--5-5---|

(Se repite el Coro y luego toda la canción pero la intro se hace 1 vez)

Interludio:
G|---------------------|----------------|
D|---------------------|----------------|
A|---------5---10-9-7--|---------5------|
E|-7---5-------?-----9-|-7---5----------|x2

B                      D        G     D
No quiero estar sin ti ahora te ten--go
B            D    A
No podría vivir así
B                     D        G     D
No puedo estar sin ti ahora te ten--go
B            D    A
No podría vivir así


Final: (termina en G)

G|------------------------------------------------|
D|------------------------------------------------|
A|------------------------5-5-5-5-5-5-------------|
E|-7-7-7-7-7-7-5-5-5-5?5-5-----------3-3-3-3-3-3--|x2

Bendiciones?
Suggest correction
Give kudos to tab author, rate the tab!
1 2 3 4 5
comments
print report bad tab
guest
You may want to rate the tab now too:
select rating
Wanna post a correction for this tab? Suggest correction