Oops, an error
Loading. Please wait.

Eternamente Tab

5 views 1 this week
no commentswrite comment
1 2 3 4 5
3 more votes to show rating
add to favorites
launch autoscroll
font size
0
reset
how to read this tab
guitar tuner
Autoscroll
slow
fast
+/-
esc
set tempo
stop
Help us to improve Ultimate-Guitar.com Take our survey!
×
NOTA: - EN MUCHAS PARTES LAS DOS GUITARRAS HACEN LO MISMO
        EN LAS QUE NO, LES DETALLO LA PRIMERA Y
        SEGUNDA GUITARRA

      - Estas notas las saque de otra pagina.


INTRO:
   E   F#  G#   A
e|----------------------------------
B|----------------------------------
G|-9---11--13---14------------------
D|----------------------------------
A|-7---9---11---12------------------
E|----------------------------------
   x8  x8  x8   x8


LUEGO SOLO UNA GUITARRA:
e|------------------------------------
B|------------------------------------
G|-9-9-9-99---------------------------
D|-9-9-9-99-9-9-9-99-7-7-7-7--7-7-7---
A|-7-7-7-77-9-9-9-99-7-7-7-7--7-7-7---
E|----------7-7-7-77-5-5-5-5--5-5-5---

e|------------------------------------
B|------------------------------------
G|-9-9-9-99---------------------------
D|-9-9-9-99-9-9-9-99-11-11-11-7-7-7-7-
A|-7-7-7-77-9-9-9-99-11-11-11-7-7-7-7-
E|----------7-7-7-77-9--9--9--5-5-5-5-


VERSO: (QUE HICE YO PARA LOGRAR..)

LAS 2 GUITARRAS HACEN LO MISMO:
e|---------------------------------------------------------
B|---------------------------------------------------------
G|-----9------9------4------4------6------6------2------2--
D|-9-9-9--9-9-9--4-4-4--4-4-4--6-6-6--6-6-6--2-2-2--2-2-2--
A|-7-7-7--7-7-7--2-2-2--2-2-2--4-4-4--4-4-4--0-0-0--0-0-0--
E|-P.M.---P.M.---P.M.---P.M.---P.M.---P.M.---P.M.---P.M.---

PRECORO: (POR ESO TE ALABO Y TE CANTO...)

GUITARRA 1:
e|----------------------------------------------------
B|----------------------------------------------------
G|-9-------6----------------9-------6-----------------
D|-9---9---6---7------------9---9---6-------7------9--
A|-7---9---4---7------------7---9---4---X-X-7--X-X-9--
E|-0---7-------5----------------7-------X-X-5--X-X-7--

GUITARRA 2:
E|-0---0----------------------------------------------
B|-0---0----------------------------------------------
G|-9---8---6----------------9-------6-----------------
D|-9---9---6----------------9---9---6-------7------9--
A|-7---9---4----------------7---9---4---X-X-7--X-X-9--
E|-0---7-------5-5-5-4-2-4--0---7-------X-X-5--X-X-7--


CORO: (ETERNAMENTE Y PARA SIEMPRE...)
      OJO-> ESCUCHAR PARA SACAR EL RITMO
      LAS DOS GUITARRAS VAN IGUAL AQUI

e|--------------------------------------
B|--------------------------------------
G|-9-9-9-9---------6-6-6-6-2-2-2-2------
D|-9-9-9-9-9-9-9-9-6-6-6-6-2-2-2-2------
A|-7-7-7-7-9-9-9-9-4-4-4-4-0-0-0-0------
E|---------7-7-7-7----------------------

LUEGO SE REPITEN LA SEGUNDA PARTE DE LA INTRO, EL VERSO Y EL CORO.

PUENTE 1:
e|-----------------
B|-----------------
G|-----------------
D|-2---6---7---9---
A|-2---6---7---9---
E|-0---4---5---7---

PUENTE 2:

GUITARRA 1:
e|--------------------------------------
B|--------------------------------------
G|-999999999----------66666666-22222222-
D|-999999999-99999999-66666666-22222222-
A|-777777777-99999999-44444444-00000000-
E|-000000000-77777777-------------------

GUITARRA 2:
e|------------------------------------------------
B|------------------------------------------------
G|-9-9-9-9-9-9-9-9-10-(x3)-12-12-12-12-12-10-9-10-
D|------------------------------------------------
A|-7-7-7-7-7-7-7-7-8--(x3)-10-10-10-10-10--8-7-8--
E|------------------------------------------------

Y EN EL ULTIMO CORO LAS GUITARRAS SIGUEN COMO EN EL PUENTE 2:

GUITARRA 1:
e|--------------------------------------
B|--------------------------------------
G|-999999999----------66666666-22222222-
D|-999999999-99999999-66666666-22222222-
A|-777777777-99999999-44444444-00000000-
E|-000000000-77777777-------------------

GUITARRA 2:
e|------------------------------------------------
B|------------------------------------------------
G|-9-9-9-9-9-9-9-9-10-(x3)-12-12-12-12-12-10-9-10-
D|------------------------------------------------
A|-7-7-7-7-7-7-7-7-8--(x3)-10-10-10-10-10--8-7-8--
E|------------------------------------------------
Suggest correction
Give kudos to tab author, rate the tab!
1 2 3 4 5
comments
print report bad tab
guest
You may want to rate the tab now too:
select rating
Wanna post a correction for this tab? Suggest correction