Oops, an error
Loading. Please wait.

Judas Tab

version 1
version 1

Whole song

7 views 1 this week
no commentswrite comment
1 2 3 4 5
3 more votes to show rating
add to favorites
launch autoscroll
font size
0
reset
how to read this tab
guitar tuner
×
Best way to learn
"Judas"
Autoscroll
slow
fast
+/-
esc
set tempo
stop
Bueno amigos aki empieza:

Intro:
C - G - Am - F - G

e.------------------------------------------------------------
B.------------------------------------------------------------
G.------------------------------------------------------------
D.---3-2---3-2---3-2---3-2---3-2---3-2---3-2---3-2---3-2---3-2
A.-3-----3-----3-----3-----3-----3-----3-----3-----3-----3----
E.------------------------------------------------------------

*NOTA: Esta parte de arriba la pueden hacer cuantas veces quieran
Despues  va esto.

e.------------------------------------------------------------
B.------------------------------------------------------------
G.------------------------------------------------------------
D.---3-2---3-2---3-2---3-2---3-2---3-2---3/5------------------
A.-3-----3-----3-----3-----3-----3----------------------------
E.------------------------------------------------------------

C            G
Aveces pareciera
Am           F             G
Como si yo estubiera negociando
C            G
Mi vida de hacer tu voluntad
Am           F             G
A cambio de momentos de pecado

C                G
Y vengo a ti para poder liberarme
Am               F           G
Para romper ese tipo de contrato

D.---3-2---3-2---3-2---3-2---3-2---3-2---3/5------------------
A.-3-----3-----3-----3-----3-----3----------------------------

Am                   G
Quiero detener esta situacion
                  F
Ya basta de traicion
                  G
No quiero combertirme

Am                       G
En aquel hombre que te entrego
                   F
Y como Pedro q te nego
                   G
Y no te cambio porque

C                    G
Yo no quiero ser como Judas
             Am
Que fallo y te entrego
F         G
Con sus acciones

C                 G
Yo no quiero q sea igual
           Am
Cada vez que me encuentre
F          G
En una prueba

D.---3-2---3-2---3-2---3-2---3-2---3-2---3/5------------------
A.-3-----3-----3-----3-----3-----3----------------------------

C                  G
Oigo de nuevo esas voces
Am                 F           G
Que me incitan que buelba a fallarte
C                  G
Pero no lo hare me accedere
Am                 F        G
Porque siempre quiero serte fiel

D.---3-2---3-2---3-2---3-2---3-2---3-2---3/5------------------
A.-3-----3-----3-----3-----3-----3----------------------------

Se repiten los versos de arriba y es todo amigos. Espero que les
guste y que les sirva de mucho. Si necesitan alguna otra haganme
saber. Comentarios, dudas, correctiones o peticiones ahy esta mi
Email.

Esta cancion es muy bonita y las palabras nos inspiran para
permanecer fiel en los caminos del Señor.

Saludos a mi Iglesia Rios de Agua Viva aya en Williams Ca

Dios les Bendiga
Suggest correction
Give kudos to tab author, rate the tab!
1 2 3 4 5
comments
print report bad tab
guest
You may want to rate the tab now too:
select rating
Wanna post a correction for this tab? Suggest correction