Oops, an error
Loading. Please wait.

Judas Tab

version 2
version 2

Whole song

10 views 1 this week
no commentswrite comment
1 2 3 4 5
3 more votes to show rating
add to favorites
launch autoscroll
font size
0
reset
how to read this tab
guitar tuner
×
Best way to learn
"Judas"
Autoscroll
slow
fast
+/-
esc
set tempo
stop
bUeNo pZ xo LA zAke aSI SPERO lEz SIRVA Dios lS bENdIga

Intro:
guitarra 1
E-------------3---3-----------1---1---
A-----3---3-----------0---0-----------
D------2h3-2h3-2h3-2h3-2h3-2h3-2h3-2h3
guitarra 1 y 2

C - G - A  - F

E-------------3---3-------------------
A-----3---3-----------0---0-----------
D------2h3-2h3-2h3-2h3-2h3-2h3-5-2-5-2

C            G
A veces pareciera
Am           F             G
Como si yo estuviera negociando
C            G
Mi vida de hacer tu voluntad
Am           F             G
A cambio de momentos de pecado

C                G
Y vengo a ti para poder liberarme
Am               F           G
Para romper ese tipo de contrato

E-------------3---3-------------------
A-----3---3-----------0---0-----------
D------2h3-2h3-2h3-2h3-2h3-2h3-5-2-5-2

Am                   G
Quiero detener esta situacion
                  F
Ya basta de traicion
                  G
No quiero convertirme

Am                       G
En aquel hombre que te entrego
                   F
Y como Pedro que te negó
                   G
Y no te cambio porque

C                    G
Yo no quiero ser como Judas
             Am
Que fallo y te entrego
F         G
Con sus acciones

C                 G
Yo no quiero que sea igual
           Am
Cada vez que me encuentre
F          G
En una prueba

E-------------3---3-----------1---1---
A-----3---3-----------0---0-----------
D------2h3-2h3-2h3-2h3-2h3-2h3-2h3-2h3


C                  G
Oigo de nuevo esas voces
Am                 F           G
Que me incitan que vuelva a fallarte
C                  G
Pero no lo hare no accedere
Am                 F        G
Porque siempre quiero serte fiel
E-------------3---3-------------------
A-----3---3-----------0---0-----------
D------2h3-2h3-2h3-2h3-2h3-2h3-5-2-5-2

puente

E----------3-3-----------1-1----
A---3-3-5-7---5-7-0-0-5-7-------
D----------------------------2-0

E----------3-3-----------1-1----
A---3-3-5-7---5-7-0-0-5-7-------
D----------------------------2-0

C                    G
Yo no quiero ser como Judas
             Am
Que fallo y te entrego
F         G
Con sus acciones

C                 G
Yo no quiero q sea igual
           Am
Cada vez que me encuentre
F          G
En una prueba

fInal*


correcciones A:

rafaj_1592@
Suggest correction
Give kudos to tab author, rate the tab!
1 2 3 4 5
comments
print report bad tab
guest
You may want to rate the tab now too:
select rating
Wanna post a correction for this tab? Suggest correction