Oops, an error
Loading. Please wait.

Quisiera tab

114 views 1 this week
no commentswrite comment
1 2 3 4 5
3 more votes to show rating
add to favorites
×
Save as Personal and add changes to this tab that will be seen only by you. Learn more ›
×
You can save this tab as Personal to edit and correct it or add notes. All changes will be seen only by you. Learn more »
launch autoscroll
font size
0
reset
how to read this tab
guitar tuner
edit
Autoscroll
slow
fast
+/-
esc
set tempo
stop
Bueno esta es la guitarra de arreglos (1ra guitarra para mi)
aqui te dejo todo lo que hace en la cancion por partes
Intro:
e|----------------------------------| |
B|---------7------------------------| |
G|-------------7---7---6h7----------| | x2
D|--7h9-9----9---9---9-----9--------| |
A|----------------------------------| |
E|----------------------------------| |

O esta otra forma :

e|---------1------------------------| |
B|-------------3--3--2h3-2----------| |
G|---2h4-4---4--4--4----------------| | x2
D|----------------------------------| |
A|----------------------------------| |
E|----------------------------------| |
(sigue mientras la otra guitarra marca Bm A G)

dato: en la introducción parecieran tres guitarras pero
lo que este guitarrista hace es
grabar el primer punteo con su pedal (looper)
y ya grabado luego lo deja sonar
mientras hace otra cosa (unos agudos si lo escuchaste)
B - A - G  (b|s8-8-7-7h8-7----|) "algo asi"

   Bm           A      G
e|---------------------10--10--9h10-12----|
B|-10-10-10-10-10-10-10--10--10-----------|
G|----------------------------------------|
D|----------------------------------------|
A|----------------------------------------|
E|----------------------------------------|
   Bm          A          G
e|----------------------------------------|
B|-10-10-10-10-10-10-10-10-8-8-7-7h8-7----|
G|----------------------------------------|
D|----------------------------------------|
A|----------------------------------------|
E|----------------------------------------|

e|---------------------10--10--9h10-12----|
B|-10-10-10-10-10-10-10--10--10-----------|
G|----------------------------------------|
D|----------------------------------------|
A|----------------------------------------|
E|----------------------------------------|

Estrofa: aquí va (prefiero yo) con de palm mute?

e|---------------------------------------------|
B|---------------------------------------------|
G|--7-7-6-6---6--7-7-6-6-6-9-9-7-7-7-6-6-7-7---|
D|---7------7--7--7-----7-7-7-----7---7---7----|
A|---------------------------------------------|
E|---------------------------------------------|

Mas o menos con eso juega durante la estrofa..
cambia la ritmica dale tu estilo o escucha bien la cancion
y saca los golpes exactos

Pre coro:
esta parte es sencilla porque solo juega con esta inversion de acorde
te pongo los trastes y vos haaces los golpecitos bien =)
(Nota: podes reemplazar la casilla 10 de b con con la 5 de e)

e|------------------------------|
B|-----10---10---10--------(?)--|
G|-6h7----7----7----7-6h7-(?)---|
D|------------------------------|
A|------------------------------|
E|------------------------------|

e|------------------------------|
B|-10---10----10-----(?)--------|
G|---7----7-----7-(?)-----------|
D|----9-----9----9-(?)----------|
A|------------------------------|
E|------------------------------|  Deja de hacer
este arreglo en los golpes en A mas o menos en ?camino?
Otra forma de hacer este arreglo es asi:

e|-----5---5----5--------(?)----|
B|-2h3---3----3----3-2h3-(?)----|
G|------------------------------|
D|------------------------------|
A|------------------------------|
E|------------------------------|

e|-5---5---5--------------------|
B|--3---3---3-----(?)-----------|
G|---4---4---4----(?)-----------|
D|------------------------------|
A|------------------------------| es lo mismo.(Parecido a la intro de
E|------------------------------| ?Te Prometo?)

Coro: en el coro usamos los acordes G - D - Bm - A
el G en su 2da inversion
    G   D   Bm    A
e|----------7----------------|
B|--8*--5---7-----7----------|
G|--7---7*--11----9----------|
D|--5---7---7*----7----------|
A|------5---9-----7----------|
E|----------7-----5----------|

G: la casilla con * la pongo porque esa se mueve constantemente
entre las casillas 8 y 7
D: la casilla 7 [*] se mueve tambien entre las casillas 7 y 6
Bm: La casilla 7 [*] la pongo por la estructura,
podes armar la nota en esa forma o tambien en vez de 7
poner el dedo en la casilla 9

Introduccion: de nuevo hace lo mismo.

Estrofa 2: igual
Pre coro: igual
Coro: igual

Interludio: 1ra parte con palm mute G - D x2 (
estos son los golpes fuertes que haria la otra guitarra claro (;)

Y aunq casi inotables estos son los arreglitos de la 1ra si escuchas
atentamente los entendes bien, asi que hacelo =)

e|------------------------------|
B|-2h3-2---2h3-2-------3h5*-----|
G|------4-------4---------------|
D|------------------------------|
A|------------------------------|
E|------------------------------|

Y el acorde final

    D
e|---10-----------------|
B|----7-----------------|
G|----7----7--9---------|
D|----7----7--7x--------|
A|---------5--7---------|
E|----------------------|
Tienes que escuchar muy bien este acorde porque es algo confuso
pero los dos ultimos son cambios rapidos y el primero mantiene.. .

*: este es un golpe mui ligero y no es seguido..
si no que tiene su tiempo por eso esta mas alejado =)
(ojo que para esta parte tambien usa su looper el guitarrista
asi que si algoo te suena de menos es por eso..
igual depende de vos y tu estilo siempre)

2da parte: esta parte es parecido al pre coro el arreglo
ahí te dejo las casillas que usa y vos le das tu ritmo ^^
e|----------------------------|
B|---------10----10-----------|
G|-9---9-----7-----7----------|
D|--7---7-----9-----7---------|
A|---7---7--------------------|
E|----------------------------|
Y sigue jugando con eso.

Pre coro:


   G  Bm    G       D     A
e|--------------------------5---|
B|----8-7---10-8-7--8-7--6-7----|
G|-7----------------------------|
D|------------------------------|
A|------------------------------|
E|------------------------------|    Con buen delay.


Interludio 2:
e|-----------------------------|
B|-----------------------------|
G|--7-6-7-11-11--4-4-4-7-6-7---|
D|--5-5-5-9--9---2-2-2-5-5-5---|
A|--5-5-5-9--9---2-2-2-5-5-5---|
E|-----------------------------|


e|---------------------------------------------|
B|---------------------------------------------|
G|-11-11-11-11--9-9-9-7--12-12-12-11h-12-11----|
D|-9--9--9--9---7-7-7-7--12-12-12-11h-12-11----|
A|-9--9--9--9---7-7-7-7--10-10-10-9-h-10-9-----|
E|---------------------------------------------|

e|------------------------------|
B|------------------------------|
G|-14|---12-12-12-11-11-h-12-11-|
D|-12|x7-12-12-12-11-11-h-12-11-|
A|-12|---10-10-10-9--9--h-10-9--|
E|------------------------------|

e|-----------------------------|
B|-----------------------------|
G|--7-6-7-7-h11--11-9----------|
D|--5-5-5-5-h9---9--7----------|
A|--5-5-5-5-h9---9--7----------|
E|-----------------------------|

El primer "solo" diria que lo hagan
lento asi se dan cuenta de la melodia que lleva
en realidad son puras octavas si se escuchan bien..
escuchen la cancion para agarrar el rasguido,
porque yo puse la cantidad de golpes
ahí mas o menos en cada una de las octavas
pero no como va el rasguido?
eso corre por su cuenta y personalidad =)!
Pero aunque se vea difícil es facil!....y asi quedo la cancion?.
estas octavas se mantienen en el ultimo coro y pasamos al outro:
Outro: G - Bm - G - D A x2

e|--5-5---5-5------------------|
B|---------------7-7-8-7-------|
G|------7-----7---7-7----------|
D|-----------------------------|
A|-----------------------------|
E|-----------------------------|

Y eso es todo =)
espero que este entendible dentro de todo!
si no, ya saben >>> e-mail!
Bendiciones By FerChaz!!!

            
            
Suggest correction
Creating personal tab
Creating personal tab
You can edit any tab online and save it as your Personal.

You can edit, replace or remove any tab part or add personal notes – all changes will be seen only by you.

Personal tabs can be accessed anytime from any device, even offline.
Learn more »
Give kudos to tab author, rate the tab!
1 2 3 4 5
comments
print report bad tab
guest
Wanna post a correction for this tab? Suggest correction