Oops, an error
Loading. Please wait.

Fuga Social Tab

44 views 1 this week
no commentswrite comment
1 2 3 4 5
3 more votes to show rating
add to favorites
launch autoscroll
font size
0
reset
how to read this tab
guitar tuner
Autoscroll
slow
fast
+/-
esc
set tempo
stop
Help us to improve Ultimate-Guitar.com Take our survey!
×
Canción de una de las mejores bandas de heavy ecuatoriano
e acepta cualquier corrección
Saludos desde Ecuador de la banda Psycosis
que tocamos la canción en cover
Transcrita por la guitarra Ritmica: Henry y Juan
Saludos para todos los que nos han escuchado
Y para el amor de mi vida Angelica te amo????
Henry (te amo e intentare recuperarte)

Intro:
(Piano trasncrito a guitarra)

e-9-7----------------7--9--7---9-7----------------7---
B-----10-9-7--9--10----------------10-9-7--9--10----7-
G----------------------------------------------------- x2
D-----------------------------------------------------
A-----------------------------------------------------
E-----------------------------------------------------
Al finalizar el punteo de inicio entra en quintas

e------------------------------------------------------
B------------------------------------------------------
G------------------------------------------------------
D--5--------------------------5------------------------  (2da guitarra)
A--5--------------------------5------------------------
E--3--------------------------3------------------------

Escuchar bien la canción
para poder coger bien los tiempos
Luego entra la guitara 1 con el punteo
 de inicio de guitarra

e------------------------------------------------------
B------------------------------------------------------
G------------------------------------------------------
D------------------------------------------------------ x4(1,2 guitarra)
A---------------------------------3--------------------     PUNTEO 1
E-6p3-3-3-6p3-3-3-6p3-3-3-6p3-3-3---6------------------


G5
Acabo ya el ser mimado
A#5
Los juguetes y el helado
F5
Aunque aun sea menor de edad

PUNTEO 1

G5
Son recuerdos de otro tiempo
A#5
Que vivias en un cuento
F5
Donde no había lobos que matar
PUNTEO 1

Aquí cambia entra el
CORO
     A#5            F5
Lo que quiero es saber escapar
PUNTEO 1
     A#5        F5
Solo quiero poder escapar
PUNTEO 1

G5
Y la ciudad está en tu espalda
A#5
Y hasta los mendigos hablan
F5
Lo que hiciste todos sabrán ya

PUNTEO 1

G5
Es mejor cerrar la puerta
A#5
Y que pienses que estas muerta
F5
Con esta maldita sociedad

PUNTEO 1

G5
Son recuerdos de otro tiempo
A#5
Que vivimos en un cuento
F5
Donde no había lobos que matar

    A#5             F5
Lo que quiero es saber escapar
PUNTEO 1
     A#5       F5
Solo quiero poder escapar

Aquí nos quedamos en G5 En ves del punteo


e------------------------------------------------------
B------------------------------------------------------
G------------------------------------------------------
D--5-------------5------------5----------5-------------  2da guitarra)
A--5-------------5------------5----------5-------------
E--3-------------3------------3----------3-------------

Aquí entran las quintas de toda la canción en Palmuting
el solo lo escribo luego si lo tengo si quieren para enviarles

Luego se repite todo la canción con las mismas quintas

G5
Llevaras en ti colores
A#5
Aunque solo sean dolores
F5
Y finjas que nada anda mal

PUNTEO 1

G5
Ellos sabrán lo que pasa
A#5
O inventaran una farsa
F5
Para criticarte una ves mas

PUNTEO 1


G5
Es mejor cerrar la puerta
A#5
Y que pienses que estas muerta
F5
Con esta maldita sociedad

PUNTEO 1


    A#5             F5
Lo que quiero es saber escapar
PUNTEO 1
     A#5       F5
Solo quiero poder escapar
    A#5             F5
Lo que quiero es saber escapar
PUNTEO 1
     A#5       F5
Solo quiero poder escapar

Al final se repite el intro del piano per mas lento


Gracias
Me avisan si necesitan el solo a esta dirección
henry00danilo @
Esque estoy de apuro y no lo puedo transcribir
Suggest correction
Give kudos to tab author, rate the tab!
1 2 3 4 5
comments
print report bad tab
guest
You may want to rate the tab now too:
select rating
Wanna post a correction for this tab? Suggest correction