Oops, an error
Loading. Please wait.

Combat Baby bass

version 1
version 1

Whole song

Interactive

by Metric
3,438 views 21 this week
1 commentread comment
1 2 3 4 5
x 6
add to favorites
×
Save as Personal and add changes to this tab that will be seen only by you. Learn more ›
×
You can save this tab as Personal to edit and correct it or add notes. All changes will be seen only by you. Learn more »
launch autoscroll
font size
0
reset
guitar tuner
backing track
0:00
0:00
edit
Autoscroll
slow
fast
+/-
esc
set tempo
stop
Author
Difficulty
Artist: Metric

Album: Old World Underground, Where Are You Now?



All tabs by Pedro Zappa
-----------------------------------------------------------------------------
-----------------------------------------------------------------------------


4. Combat Baby


Verse 1

G||------11----------13----|------9---------9---|
D||-9-9-----9--11-11----11-|-7-7----7--7-7----7-|
A||------------------------|--------------------|
E||------------------------|--------------------|
    i    i     i     i       i    i    i    i
G||------11----------13----|--------16-----14-----13---|| x2
D||-9-9-----9--11-11----11-|-14-14-----14-----14-------||
A||------------------------|---------------------------||
E||------------------------|---------------------------||
    i    i     i     i       i      i      i      i

G||------11----------13----|------9---------9---|
D||-9-9-----9--11-11----11-|-7-7----7--7-7----7-|
A||------------------------|--------------------|
E||------------------------|--------------------|
    i    i     i     i       i    i    i    i
G||------11----------13----|---------------------11-|
D||-9-9-----9--11-11----11-|------11----------11----|
A||------------------------|-9-9-----9---9-9--------|
E||------------------------|------------------------|
    i    i     i     i       i    i      i    i

G||------11----------13----|------9---------9---|
D||-9-9-----9--11-11----11-|-7-7----7--7-7----7-|
A||------------------------|--------------------|
E||------------------------|--------------------|
    i    i     i     i       i    i    i    i
G||------11---------11---|-------9-------------|
D||-9-9-----9--8-8-----8-|-7-7-----7--7-9--7-4-|
A||----------------------|---------------------|
E||----------------------|---------------------|
    i    i     i    i       i    i    i    i

Chorus 1

G||--------------------|--------------------|
D||-2-2----2--2-2----2-|-6-6----6--6-6----6-|
A||--------------------|--------------------|
E||--------------------|--------------------|
    i    i    i    i     i    i    i    i
G||--------------------|--------------------|
D||--------------------|----------------4-4-|
A||-4-4----4--4-4----4-|-4-4----4--2-2------|
E||--------------------|--------------------|
    i    i    i    i     i    i    i    i

G||--------------------|--------------------|
D||-2-2----2--2-2--4-6-|-6-6----6--6-6----6-|
A||--------------------|--------------------|
E||--------------------|--------------------|
    i    i    i    i     i    i    i    i
G||--------------------|--------------------|
D||--------------------|--------6--7-7--6-4-|
A||-4-4----4--4-4----4-|-4-4----------------|
E||--------------------|--------------------|
    i    i    i    i     i    i    i    i

G||--------------------|--------------------|
D||-2-2----2--2-2----2-|-6-6----6--6-6----6-|
A||--------------------|--------------------|
E||--------------------|--------------------|
    i    i    i    i     i    i    i    i
G||--------------------|--------------------|
D||--------------------|----------------4-4-|
A||-4-4----4--4-4----4-|-4-4\---0--2-2------|
E||--------------------|--------------------|
    i    i    i    i     i    i    i    i

G||--------------------|--------------------|--------------------|-----|
D||-2-2----2--2-2--4-6-|-6-6----6--6-6------|--------------------|-----|
A||--------------------|----------------6---|-4-4----4--4-4----4-|-4---|
E||--------------------|------------------4-|--------------------|-----|
    i    i    i    i     i    i    i    i     i    i    i    i

Verse 2

G||------11----------13----|------9---------9---|
D||-9-9-----9--11-11----11-|-7-7----7--7-7----7-|
A||------------------------|--------------------|
E||------------------------|--------------------|
    i    i     i     i       i    i    i    i
G||------11----------13----|--------16-----14-----13---|| x2
D||-9-9-----9--11-11----11-|-14-14-----14-----14-------||
A||------------------------|---------------------------||
E||------------------------|---------------------------||
    i    i     i     i       i      i      i      i

G||------11----------13----|------9---------9---|
D||-9-9-----9--11-11----11-|-7-7----7--7-7----7-|
A||------------------------|--------------------|
E||------------------------|--------------------|
    i    i     i     i       i    i    i    i
G||------11----------13----|---------------------11-|
D||-9-9-----9--11-11----11-|------11----------11----|
A||------------------------|-9-9-----9---9-9--------|
E||------------------------|------------------------|
    i    i     i     i       i    i      i    i

G||------11----------13----|------9---------9---|
D||-9-9-----9--11-11----11-|-7-7----7--7-7----7-|
A||------------------------|--------------------|
E||------------------------|--------------------|
    i    i     i     i       i    i    i    i
G||------11---------11---|-------9-------------|
D||-9-9-----9--8-8-----8-|-7-7-----7--7-9--7-4-|
A||----------------------|---------------------|
E||----------------------|---------------------|
    i    i     i    i       i    i    i    i

Chorus 2

G||--------------------|--------------------|
D||-2-2----2--2-2----2-|-6-6----6--6-6----6-|
A||--------------------|--------------------|
E||--------------------|--------------------|
    i    i    i    i     i    i    i    i
G||--------------------|--------------------|
D||--------------------|----------------4-4-|
A||-4-4----4--4-4----4-|-4-4----4--2-2------|
E||--------------------|--------------------|
    i    i    i    i     i    i    i    i

G||--------------------|--------------------|
D||-2-2----2--2-2--4-6-|-6-6----6--6-6------|
A||--------------------|----------------6---|
E||--------------------|--------------------|
    i    i    i    i     i    i    i    i
G||--------------------|--------------------|
D||--------------------|--------6--7-7--6-4-|
A||-4-4----4--4-4----4-|-4-4----------------|
E||--------------------|--------------------|
    i    i    i    i     i    i    i    i

G||--------------------|--------------------|
D||-2-2----2--2-2----2-|-6-6----6--6-6----6-|
A||--------------------|--------------------|
E||--------------------|--------------------|
    i    i    i    i     i    i    i    i
G||--------------------|--------------------|
D||--------------------|--------------------|
A||-4-4----4--4-4----4-|-4-4----0--2-0--2---|
E||--------------------|--------------------|
    i    i    i    i     i    i    i    i

G||--------------------|--------------------|--------------------|-----|
D||-2-2----2--2-2----6-|-6-6----6--6-6------|--------------------|-----|
A||--------------------|----------------6---|-4-4----4--4-4----4-|-4---|
E||--------------------|------------------4-|--------------------|-----|
    i    i    i    i     i    i    i    i     i    i    i    i

(wait)

Outro

G||--------------------|
D||--------------------|
A||--------------------|
E||-5----5----5----5\4-|
    i    i    i    i     
G||--------------------|--------------------|
D||--------------------|------------------6-|
A||-4-4----4--4-4----4-|-4-4----4--4-4------|
E||--------------------|--------------------|
    i    i    i    i     i    i    i    i
G||--------------------|--------------------|
D||-7-7----7--7-7----7-|-7-7----7--7-7----7-|
A||--------------------|--------------------|
E||--------------------|--------------------|
    i    i    i    i     i    i    i    i
G||--------------------|--------------------|
D||-8-8----8--8-8----8-|-8-8----8--8-8----8-|
A||--------------------|--------------------|
E||--------------------|--------------------|
    i    i    i    i     i    i    i    i
G||--------------------|--------------------|
D||-7-7----7--7-7----7-|-7----7----7----6---|
A||--------------------|--------------------|
E||--------------------|--------------------|
    i    i    i    i     i    i    i    i

G||--------------------|--------------------|
D||--------------------|----------------6---|
A||-4-4----4--4-4----4-|-4-4----4--4-4----4-|
E||--------------------|--------------------|
    i    i    i    i     i    i    i    i
G||--------------------|--------------------|
D||-7-7----7--7-7----7-|-7-7----7--7-7----7-|
A||--------------------|--------------------|
E||--------------------|--------------------|
    i    i    i    i     i    i    i    i
G||--------------------|--------------------|
D||-8-8----8--8-8----8-|-8-8----8--8-8----8-|
A||--------------------|--------------------|
E||--------------------|--------------------|
    i    i    i    i     i    i    i    i
G||--------------------|--------------------|
D||-7-7----7--7-7----7-|-7------------------|
A||--------------------|--------------------|
E||--------------------|--------------------|
    i    i    i    i     i    i    i    i

Chorus 2

G||--------------------|
D||--------------------|
A||----------------2/--|
E||--------------------|
    i    i    i    i  

G||--------------------|--------------------|
D||--------------------|-6-6----6--6-6----6-|
A||-7-7----7--7-7----7-|--------------------|
E||--------------------|--------------------|
    i    i    i    i     i    i    i    i
G||--------------------|--------------------|
D||--------------------|----------------4-4-|
A||-4-4----4--4-4----4-|-4-4----4--2-2------|
E||--------------------|--------------------|
    i    i    i    i     i    i    i    i

G||--------------------|--------------------|
D||-2-2----2--2-2--4-6-|-6-6----6--6-6------|
A||--------------------|----------------6---|
E||--------------------|--------------------|
    i    i    i    i     i    i    i    i
G||--------------------|--------------------|
D||--------------------|--------6--7-7--6-4-|
A||-4-4----4--4-4----4-|-4-4----------------|
E||--------------------|--------------------|
    i    i    i    i     i    i    i    i

G||--------------------|--------------------|
D||-2-2----2--2-2----2-|-6-6----6--6-6----6-|
A||--------------------|--------------------|
E||--------------------|--------------------|
    i    i    i    i     i    i    i    i
G||--------------------|--------------------|
D||--------------------|--------------------|
A||-4-4----4--4-4----4-|-4-4----0--2-0--2---|
E||--------------------|--------------------|
    i    i    i    i     i    i    i    i

G||--------------------|--------------------|--------------------|-----|
D||-2-2----2--2-2--4-6-|-6-6----6--6-6------|--------------------|-----|
A||--------------------|----------------6---|-4-4----4--4-4----4-|-4---|
E||--------------------|--------------------|--------------------|-----|
    i    i    i    i     i    i    i    i     i    i    i    i

(wait)

G||------11----------13----|------9---------9---|
D||-9-9-----9--11-11----11-|-7-7----7--7-7----7-|
A||------------------------|--------------------|
E||------------------------|--------------------|
    i    i     i     i       i    i    i    i
G||------11----------13----|--------------------|| x2
D||-9-9-----9--11-11----11-|-7------------------||
A||------------------------|--------------------||
E||------------------------|--------------------||
    i    i     i     i       i    i    i    i


Tab by Pedro Zappa
-----------------------------------------------------------------------------
-----------------------------------------------------------------------------

            
            
Suggest correction
Creating personal tab
Creating personal tab
You can edit any tab online and save it as your Personal.

You can edit, replace or remove any tab part or add personal notes – all changes will be seen only by you.

Personal tabs can be accessed anytime from any device, even offline.
Learn more »
comments
print report bad tab
1 comment total.
0 reply
Artolan 273 Feb 26, 2017 03:30 PM

I feel like some parts of chorus should be played octave lower, other than this great tab.

guest
You may want to rate the tab now too:
select rating
Wanna post a correction for this tab? Suggest correction