Oops, an error
Loading. Please wait.

Combat Baby tab

version 2
version 2

Whole song

Interactive

by Metric
7,863 views 3 this week
1 commentread comment
1 2 3 4 5
x 4
add to favorites
×
Save as Personal and add changes to this tab that will be seen only by you. Learn more ›
×
You can save this tab as Personal to edit and correct it or add notes. All changes will be seen only by you. Learn more »
launch autoscroll
font size
0
reset
how to read this tab
guitar tuner
backing track
0:00
0:00
edit
Autoscroll
slow
fast
+/-
esc
set tempo
stop
Author
This is a CORRECT version of 'Combat Baby' off of Metric's Old World Underground,Where 
You Now? The song is extremely easy to play and can get addictive. I'm more than positive 
version matches correctly. Please rate this tab to tell me(and others) what you think!
-----------------------------------------------------------------------------
Song-Combat Baby
Artist-Metric
Album-Old World Underground, Where Are You Now?


Standard Tuning

Key:
/-Slide Down
\-Slide Up
b-Bend
/-Strum Down
\-Strum Up
|.....|-Let Ring
()-Don't Play on Last Time
Chords:
      F                A                D                G
|1|1|1|1|1|1|    |5|5|5|5|5|5|    |5|5|5|5|5|5|    |3|3|3|3|3|3|
|_|_|_|2|_|_|    |_|_|_|6|_|_|    |_|_|7|7|7|_|    |_|_|_|4|_|_|
|_|3|3|_|_|_|    |_|7|7|_|_|_|    |_|_|_|_|_|_|    |_|5|5|_|_|_|
|_|_|_|_|_|_|    |_|_|_|_|_|_|    |_|_|_|_|_|_|    |_|_|_|_|_|_|
|_|_|_|_|_|_|    |_|_|_|_|_|_|    |_|_|_|_|_|_|    |_|_|_|_|_|_|

*Intro/Verse*
[Bass Begins Song]

(0:17-0:30)
E|-------------------------------------------------------|
B|-------------------------------------------------------|
G|-------------------------------------------------------|
D|------5--------7--------3-------3----------------------|
A|--3-3---3/-5-5---5--1-1---1--1-1--1--------------------|
E|-------------------------------------------------------|

E|-------------------------------------------------------|
B|-------------------------------------------------------|
G|-------------------------------------------------------|
D|------5--------7--------10---10-8-7--------------------|
A|--3-3---3/-5-5---5/-8-8----8--------8------------------|
E|-------------------------------------------------------|

E|-------------------------------------------------------|
B|-------------------------------------------------------|
G|-------------------------------------------------------|
D|------5--------7--------3--------3---------------------|
A|--3-3---3/-5-5---5--1-1---1--1-1---1-------------------|
E|-------------------------------------------------------|

E|-------------------------------------------------------|
B|-------------------------------------------------------|
G|-------------------------------------------------------|
D|------5--------3-------3-------------------------------|
A|--3-3---3\-1-1--1--1-1--1--1-3-------------------------|
E|-------------------------------------------------------|

*Chorus*

(0:31-0:58)

F /\ /\/ / A/\ /\/ / D/\ /\/ /\/ /\/\ G/\ X4

(0:58-1:25)
*Verse*
Repeat Intro/Verse-X2

(1:26-1:52)
*Chorus*
Repeat Chorus-X1

*Interlude*
(1:53-2:48)

E|---------------------------------------------------|
B|------3-----3-----3-----3--------------------------|
G|--2-2---2-2---2-2---2-2---2------------------------|
D|---------------------------------------------------|
A|---------------------------------------------------|
E|---------------------------------------------------|
   |..|  |..|  |..|  |..|

E|---------------------------------------------------|
B|------5-----5-----5-----5--------------------------|
G|--3-3---3-3---3-3---3-3---3------------------------|
D|---------------------------------------------------|
A|---------------------------------------------------|
E|---------------------------------------------------|
   |..|  |..|  |..|  |..|


E|---------------------------------------------------|
B|------6-----6-----6-----6--------------------------|
G|--4-4---4-4---4-4---4-4---4------------------------|
D|---------------------------------------------------|
A|---------------------------------------------------|
E|---------------------------------------------------|
   |..|  |..|  |..|  |..|


E|---------------------------------------------------|
B|------5-----5-------(5-5-5-5)----------------------|
G|--3-3---3-3---3-3---(3-3-3-3)----------------------|
D|---------------------------------------------------|
A|---------------------------------------------------|
E|---------------------------------------------------|
   |..|  |..|  |..|


X4

Then...
Strum Variation:
F/\/\/\/\ A/\/\/\/\ D/\/\/\/\/\/\/\ G/\
X2

(2:49-3:15)
*Chorus*
Play Chorus
X2

*Outro*

(3:16-END)
E|-----------------------------------------|
B|-----------------------------------------|
G|------5--------7--------3--------3-------|
D|--3-3---3/-5-5---5\-1-1---1--1-1---1-----|
A|-----------------------------------------|
E|-----------------------------------------|

                       (F)
E|----------------------1------------------|
B|----------------------1------------------|
G|----------------------2------------------|
D|------5--------7------3------------------|
A|--3-3---3/-5-5---5----3------------------|
E|----------------------1------------------|
                        |..................|


Tabbed by Isaac Leary of Highly Refined Pirates.
Visit the band's website at: www.purevolume.com/highlyrefinedpirates
or on Myspace at www.myspace.com/highlyrefinedpiratesmusic

Visit my profile at: www.myspace.com/piratenumberone

            
            
Suggest correction
Creating personal tab
Creating personal tab
You can edit any tab online and save it as your Personal.

You can edit, replace or remove any tab part or add personal notes – all changes will be seen only by you.

Personal tabs can be accessed anytime from any device, even offline.
Learn more »
comments
print report bad tab
1 comment total.
0 reply
Talflick 496 Dec 31, 2006 03:26 PM

im pretty sure is a Dm in the chorus.... 557765 (E to e)

guest
You may want to rate the tab now too:
select rating
Wanna post a correction for this tab? Suggest correction