Oops, an error
Loading. Please wait.

Empty tab

version 5
version 5

Whole song

Interactive

by Metric
773 views 3 this week
1 commentread comment
1 2 3 4 5
2 more votes to show rating
add to favorites
×
Save as Personal and add changes to this tab that will be seen only by you. Learn more ›
×
You can save this tab as Personal to edit and correct it or add notes. All changes will be seen only by you. Learn more »
launch autoscroll
font size
0
reset
how to read this tab
guitar tuner
edit
Autoscroll
slow
fast
+/-
esc
set tempo
stop
Author
-----------------------------------------------------------------
EMPTY - Metric
-----------------------------------------------------------------
Tabbed by: Neno


The other tabs have the correct harmony and rhythm but the chord voicing is slightly different. 
The only way to correctly duplicate the track is to use this tuning. Also, this is how they
play it live.


Tuning:Low to High - DGBEBe


INTRO/VERSE - Part 1

e|---------------------------------------------------|
B|---------------------------------------------------|
E|-------5------------3------------5------------7----|
B|----0-----0------0-----0------0-----0------0-----0-|
G|---------------------------------------------------|
D|-5------------5------------5-----------/7----------|

e|---------------------------------------------------|
B|---------------------------------------------------|
E|-------2------------2------------2------------0----|
B|----0-----0------0-----0------0-----0------0-----0-|  x4 
G|---------------------------------------------------|
D|-2------------2------------2------------2----------|


VERSE - Part 2

e|---------------------------------------------------|
B|---------------------------------------------------|
E|-------0------------0------------0------------0----|
B|----5-----5------5-----5------5-----5------5-----5-|
G|-5------------5------------5------------5----------|
D|---------------------------------------------------|

e|---------------------------------------------------|
B|---------------------------------------------------|
E|-------0------------0------------0------------0----|
B|----7-----7------7-----7------7-----7------7-----7-|
G|-7------------7------------7------------7----------|
D|---------------------------------------------------|

e|---------------------------------------------------|
B|---------------------------------------------------|
E|-------0------------0------------0------------0----|
B|----5-----5------5-----5------5-----5------5-----5-|
G|-5------------5------------5------------5----------|
D|---------------------------------------------------|

First Ending

e|---------------------------------------------------|
B|---------------------------------------------------| 
E|-------0------------0------------0------------0----| Repeat Part 2 but using the Second Ending
B|----3-----3------3-----3------7-----7------7-----7-| 
G|-4------------4------------7------------7----------|  
D|---------------------------------------------------|

Second Ending

e|---------------------------------------------------|---|
B|---------------------------------------------------|---|
E|-------0------------0------------0------------0----|---|
B|----8-----8------8-----8------8-----8------8-----8-|---|
G|-9------------9------------9------------9----------|-9-|
D|---------------------------------------------------|---|



**Repeat the whole intro/verse  Section**



CHORUS

e|----------------------------------------------12--12-|
B|----------------------------------------------12--12-|
E|----------------------------------------------12--12-|
B|-----------------------------------------------------|
G|-5--5---------5--5---------5--5---------5--5---------|
D|-3--3--0--2---3--3--0--2---3--3--0--2---3--3---------|

e|-----------------------------------------------------|
B|-----------------------------------------------------|
E|-----------------------------------------------------|
B|-----------------------------------------------------| x 14 (I think)
G|-9--9----9--/12--12--12---\7--7----7--/12--12--12----|
D|-7--7----7--/10--10--10---\5--5----5--/10--10--10----|


CHORUS - Fill (tremolo picking and slide, 8 beats total)

e|-0////////////////////////////////////////////////22-|
B|-0////////////////////////////////////////////////22-|
E|-----------------------------------------------------|
B|-----------------------------------------------------|
G|-----------------------------------------------------|
D|-----------------------------------------------------|


SOLO:

As mentioned  in one of the other tabs, the solo beings with essentially random 
bending and picking
of the first string 12th fret with some other notes. It's basically E Minor 
pentatonic.Pentatonic boxes 
are different in this song because of the tuning, only the E and B strings remain 
untouched so its 
easiest to just play the solo on these 2 strings :) It stays between the 10th and 
19th frets pretty much
but here are all the possible notes for your soloing shenanigans:

e|--0---3---5---7---10---12---15---17---19---22-|
B|--0---3---5---8---10---12---15---17---20---22-|
E|----------------------------------------------| (3rd string = same notes as 1st string)
B|----------------------------------------------|
G|----------------------------------------------|
D|----------------------------------------------|



**Repeat the Intro/Verse section**


FIN.



| /  slide up
| \  slide down
| h  hammer-on
| p  pull-off
| ~  vibrato
| +  harmonic
| x  Mute note

            
            
Suggest correction
Creating personal tab
Creating personal tab
You can edit any tab online and save it as your Personal.

You can edit, replace or remove any tab part or add personal notes – all changes will be seen only by you.

Personal tabs can be accessed anytime from any device, even offline.
Learn more »
Give kudos to tab author, rate the tab!
1 2 3 4 5
comments
print report bad tab
1 comment total.
0 reply
iRuKUS 10 Oct 05, 2012 10:20 PM

Nice job with the tab!
tuning is great and your right on the voicing.
thanks

guest
You may want to rate the tab now too:
select rating
Wanna post a correction for this tab? Suggest correction