Oops, an error
Loading. Please wait.

Gimme Sympathy bass

version 1
version 1

Whole song

Interactive

by Metric
12,767 views 12 this week
no commentswrite comment
1 2 3 4 5
x 7
add to favorites
×
Save as Personal and add changes to this tab that will be seen only by you. Learn more ›
×
You can save this tab as Personal to edit and correct it or add notes. All changes will be seen only by you. Learn more »
launch autoscroll
font size
0
reset
guitar tuner
edit
Autoscroll
slow
fast
+/-
esc
set tempo
stop
Author
Difficulty
Metric - Gimme Sympathy

Tabbed by Meghan and Stefan
Most of the song is double strummed, it's just easier to read when it's written this way.
The Transition, Ending and 7-7-9-7 part of the 2nd Chorus is as written.

Verse
G|-----------------------------------------------------------------|
D|-----------------2-2-2-2-2-2-2-2-4-4-4-4-4-4-4-4-----------------|
A|-0-0-0-0-0-0-0-0---------------------------------2-2-2-2-2-2-2-2-| X2
E|-----------------------------------------------------------------|

Bridge
G|---------------------------------|
D|-0-0-0-0-0-0-0-0-2-2-2-2-2-2-2-2-|
A|---------------------------------| X2
E|---------------------------------|

1st Chorus
G|------------------------------------------------------------------------------------------------|
D|4-4-4-4-------------------------4-4-4-4--------------------------4-4-4-4------------------------|
A|--------5-5-5-5-------------------------5-5-5-5---------7-7-7-7----------5-5-5-5---------4-4-4-4|
E|----------------5-5-5-5-5-5-5-5-----------------5-5-5-5--------------------------5-5-5-5--------|

2nd Chorus
G|---------------------------------------------------|
D|---------------------------------------------------|
A|-5-5-5-5---------7-7-9-7-7-7-9-7-7-7-9-7-7-7-9-7---| x2
E|---------5-5-5-5-----------------------------------|

Transition
G|---------------------------------|
D|---------------------------------|
A|---------------------------------|
E|-2-2-2-2-2-2-2-2-2-2-2-2-2-2-2-2-|

Verse
Bridge x2
1st Chorus
2nd Chorus
1st Chorus
2nd Chorus x3

Ending
G|---|
D|---|
A|-5-|
E|---|
Suggest correction
Creating personal tab
Creating personal tab
You can edit any tab online and save it as your Personal.

You can edit, replace or remove any tab part or add personal notes – all changes will be seen only by you.

Personal tabs can be accessed anytime from any device, even offline.
Learn more »
comments
print report bad tab
guest
You may want to rate the tab now too:
select rating
Wanna post a correction for this tab? Suggest correction